  0
SECTION
  2
HEADER
  9
$ACADVER
  1
AC1018
  9
$ACADMAINTVER
 70
     0
  9
$DWGCODEPAGE
  3
ANSI_1252
  9
$INSBASE
 10
0.0
 20
0.0
 30
0.0
  9
$EXTMIN
 10
321631.818886926
 20
5675010.98613758
 30
0.0
  9
$EXTMAX
 10
321817.826374327
 20
5675136.1706566
 30
0.0
  9
$LIMMIN
 10
0.0
 20
0.0
  9
$LIMMAX
 10
12.0
 20
9.0
  9
$ORTHOMODE
 70
     0
  9
$REGENMODE
 70
     1
  9
$FILLMODE
 70
     1
  9
$QTEXTMODE
 70
     0
  9
$MIRRTEXT
 70
     1
  9
$LTSCALE
 40
1.0
  9
$ATTMODE
 70
     1
  9
$TEXTSIZE
 40
0.2
  9
$TRACEWID
 40
0.05
  9
$TEXTSTYLE
  7
Standard
  9
$CLAYER
  8
0
  9
$CELTYPE
  6
ByLayer
  9
$CECOLOR
 62
   256
  9
$CELTSCALE
 40
1.0
  9
$DISPSILH
 70
     0
  9
$DIMSCALE
 40
1.0
  9
$DIMASZ
 40
0.18
  9
$DIMEXO
 40
0.0625
  9
$DIMDLI
 40
0.38
  9
$DIMRND
 40
0.0
  9
$DIMDLE
 40
0.0
  9
$DIMEXE
 40
0.18
  9
$DIMTP
 40
0.0
  9
$DIMTM
 40
0.0
  9
$DIMTXT
 40
0.18
  9
$DIMCEN
 40
0.09
  9
$DIMTSZ
 40
0.0
  9
$DIMTOL
 70
     0
  9
$DIMLIM
 70
     0
  9
$DIMTIH
 70
     1
  9
$DIMTOH
 70
     1
  9
$DIMSE1
 70
     0
  9
$DIMSE2
 70
     0
  9
$DIMTAD
 70
     0
  9
$DIMZIN
 70
     0
  9
$DIMBLK
  1

  9
$DIMASO
 70
     1
  9
$DIMSHO
 70
     1
  9
$DIMPOST
  1

  9
$DIMAPOST
  1

  9
$DIMALT
 70
     0
  9
$DIMALTD
 70
     2
  9
$DIMALTF
 40
25.4
  9
$DIMLFAC
 40
1.0
  9
$DIMTOFL
 70
     0
  9
$DIMTVP
 40
0.0
  9
$DIMTIX
 70
     0
  9
$DIMSOXD
 70
     0
  9
$DIMSAH
 70
     0
  9
$DIMBLK1
  1

  9
$DIMBLK2
  1

  9
$DIMSTYLE
  2
Standard
  9
$DIMCLRD
 70
     0
  9
$DIMCLRE
 70
     0
  9
$DIMCLRT
 70
     0
  9
$DIMTFAC
 40
1.0
  9
$DIMGAP
 40
0.09
  9
$DIMJUST
 70
     0
  9
$DIMSD1
 70
     0
  9
$DIMSD2
 70
     0
  9
$DIMTOLJ
 70
     1
  9
$DIMTZIN
 70
     0
  9
$DIMALTZ
 70
     0
  9
$DIMALTTZ
 70
     0
  9
$DIMUPT
 70
     0
  9
$DIMDEC
 70
     4
  9
$DIMTDEC
 70
     4
  9
$DIMALTU
 70
     2
  9
$DIMALTTD
 70
     2
  9
$DIMTXSTY
  7
Standard
  9
$DIMAUNIT
 70
     0
  9
$DIMADEC
 70
     0
  9
$DIMALTRND
 40
0.0
  9
$DIMAZIN
 70
     0
  9
$DIMDSEP
 70
    46
  9
$DIMATFIT
 70
     3
  9
$DIMFRAC
 70
     0
  9
$DIMLDRBLK
  1

  9
$DIMLUNIT
 70
     2
  9
$DIMLWD
 70
    -2
  9
$DIMLWE
 70
    -2
  9
$DIMTMOVE
 70
     0
  9
$LUNITS
 70
     2
  9
$LUPREC
 70
     4
  9
$SKETCHINC
 40
0.1
  9
$FILLETRAD
 40
0.5
  9
$AUNITS
 70
     0
  9
$AUPREC
 70
     0
  9
$MENU
  1
.
  9
$ELEVATION
 40
0.0
  9
$PELEVATION
 40
0.0
  9
$THICKNESS
 40
0.0
  9
$LIMCHECK
 70
     0
  9
$CHAMFERA
 40
0.5
  9
$CHAMFERB
 40
0.5
  9
$CHAMFERC
 40
1.0
  9
$CHAMFERD
 40
0.0
  9
$SKPOLY
 70
     0
  9
$TDCREATE
 40
2455343.56230316
  9
$TDUCREATE
 40
2455343.728969826
  9
$TDUPDATE
 40
2455343.562303171
  9
$TDUUPDATE
 40
2455343.728969838
  9
$TDINDWG
 40
0.0000000116
  9
$TDUSRTIMER
 40
0.0000000116
  9
$USRTIMER
 70
     1
  9
$ANGBASE
 50
0.0
  9
$ANGDIR
 70
     0
  9
$PDMODE
 70
     0
  9
$PDSIZE
 40
0.0
  9
$PLINEWID
 40
0.0
  9
$SPLFRAME
 70
     0
  9
$SPLINETYPE
 70
     6
  9
$SPLINESEGS
 70
     8
  9
$HANDSEED
  5
000200BF
  9
$SURFTAB1
 70
     6
  9
$SURFTAB2
 70
     6
  9
$SURFTYPE
 70
     6
  9
$SURFU
 70
     6
  9
$SURFV
 70
     6
  9
$UCSBASE
  2

  9
$UCSNAME
  2

  9
$UCSORG
 10
0.0
 20
0.0
 30
0.0
  9
$UCSXDIR
 10
1.0
 20
0.0
 30
0.0
  9
$UCSYDIR
 10
0.0
 20
1.0
 30
0.0
  9
$UCSORTHOREF
  2

  9
$UCSORTHOVIEW
 70
     0
  9
$UCSORGTOP
 10
0.0
 20
0.0
 30
0.0
  9
$UCSORGBOTTOM
 10
0.0
 20
0.0
 30
0.0
  9
$UCSORGLEFT
 10
0.0
 20
0.0
 30
0.0
  9
$UCSORGRIGHT
 10
0.0
 20
0.0
 30
0.0
  9
$UCSORGFRONT
 10
0.0
 20
0.0
 30
0.0
  9
$UCSORGBACK
 10
0.0
 20
0.0
 30
0.0
  9
$PUCSBASE
  2

  9
$PUCSNAME
  2

  9
$PUCSORG
 10
0.0
 20
0.0
 30
0.0
  9
$PUCSXDIR
 10
1.0
 20
0.0
 30
0.0
  9
$PUCSYDIR
 10
0.0
 20
1.0
 30
0.0
  9
$PUCSORTHOREF
  2

  9
$PUCSORTHOVIEW
 70
     0
  9
$PUCSORGTOP
 10
0.0
 20
0.0
 30
0.0
  9
$PUCSORGBOTTOM
 10
0.0
 20
0.0
 30
0.0
  9
$PUCSORGLEFT
 10
0.0
 20
0.0
 30
0.0
  9
$PUCSORGRIGHT
 10
0.0
 20
0.0
 30
0.0
  9
$PUCSORGFRONT
 10
0.0
 20
0.0
 30
0.0
  9
$PUCSORGBACK
 10
0.0
 20
0.0
 30
0.0
  9
$USERI1
 70
     0
  9
$USERI2
 70
     0
  9
$USERI3
 70
     0
  9
$USERI4
 70
     0
  9
$USERI5
 70
     0
  9
$USERR1
 40
0.0
  9
$USERR2
 40
0.0
  9
$USERR3
 40
0.0
  9
$USERR4
 40
0.0
  9
$USERR5
 40
0.0
  9
$WORLDVIEW
 70
     1
  9
$SHADEDGE
 70
     3
  9
$SHADEDIF
 70
    70
  9
$TILEMODE
 70
     1
  9
$MAXACTVP
 70
    64
  9
$PINSBASE
 10
0.0
 20
0.0
 30
0.0
  9
$PLIMCHECK
 70
     0
  9
$PEXTMIN
 10
1.000000000000000E+20
 20
1.000000000000000E+20
 30
1.000000000000000E+20
  9
$PEXTMAX
 10
-1.000000000000000E+20
 20
-1.000000000000000E+20
 30
-1.000000000000000E+20
  9
$PLIMMIN
 10
0.0
 20
0.0
  9
$PLIMMAX
 10
12.0
 20
9.0
  9
$UNITMODE
 70
     0
  9
$VISRETAIN
 70
     1
  9
$PLINEGEN
 70
     0
  9
$PSLTSCALE
 70
     1
  9
$TREEDEPTH
 70
  3020
  9
$CMLSTYLE
  2
Standard
  9
$CMLJUST
 70
     0
  9
$CMLSCALE
 40
1.0
  9
$PROXYGRAPHICS
 70
     1
  9
$MEASUREMENT
 70
     0
  9
$CELWEIGHT
370
    -1
  9
$ENDCAPS
280
     0
  9
$JOINSTYLE
280
     0
  9
$LWDISPLAY
290
     0
  9
$INSUNITS
 70
     1
  9
$HYPERLINKBASE
  1

  9
$STYLESHEET
  1

  9
$XEDIT
290
     1
  9
$CEPSNTYPE
380
     0
  9
$PSTYLEMODE
290
     1
  9
$FINGERPRINTGUID
  2
{E7F7769E-AACA-40AB-9EF3-61BBAFBCBA26}
  9
$VERSIONGUID
  2
{FAEB1C32-E019-11D5-929B-00C0DF256EC4}
  9
$EXTNAMES
290
     1
  9
$PSVPSCALE
 40
0.0
  9
$OLESTARTUP
290
     0
  9
$SORTENTS
280
   127
  9
$INDEXCTL
280
     0
  9
$HIDETEXT
280
     1
  9
$XCLIPFRAME
290
     0
  9
$HALOGAP
280
     0
  9
$OBSCOLOR
 70
   257
  9
$OBSLTYPE
280
     0
  9
$INTERSECTIONDISPLAY
280
     0
  9
$INTERSECTIONCOLOR
 70
   257
  9
$DIMASSOC
280
     2
  9
$PROJECTNAME
  1

  0
ENDSEC
  0
SECTION
  2
CLASSES
  0
CLASS
  1
ACDBDICTIONARYWDFLT
  2
AcDbDictionaryWithDefault
  3
ObjectDBX Classes
 90
        0
 91
        4
280
     0
281
     0
  0
CLASS
  1
VISUALSTYLE
  2
AcDbVisualStyle
  3
ObjectDBX Classes
 90
     4095
 91
        4
280
     0
281
     0
  0
ENDSEC
  0
SECTION
  2
TABLES
  0
TABLE
  2
VPORT
  5
8
330
0
100
AcDbSymbolTable
 70
     1
  0
VPORT
  5
29
330
8
100
AcDbSymbolTableRecord
100
AcDbViewportTableRecord
  2
*Active
 70
     0
 10
0.0
 20
0.0
 11
1.0
 21
1.0
 12
80.25
 22
106.4409457059851
 13
0.0
 23
0.0
 14
0.5
 24
0.5
 15
0.5
 25
0.5
 16
0.0
 26
0.0
 36
1.0
 17
0.0
 27
0.0
 37
0.0
 40
113.3818914119703
 41
0.8863849310366128
 42
50.0
 43
0.0
 44
0.0
 50
0.0
 51
0.0
 71
     0
 72
  1000
 73
     1
 74
     3
 75
     0
 76
     0
 77
     0
 78
     0
281
     0
 65
     1
110
0.0
120
0.0
130
0.0
111
1.0
121
0.0
131
0.0
112
0.0
122
1.0
132
0.0
 79
     0
146
0.0
  0
ENDTAB
  0
TABLE
  2
LTYPE
  5
5
330
0
100
AcDbSymbolTable
 70
     1
  0
LTYPE
  5
14
330
5
100
AcDbSymbolTableRecord
100
AcDbLinetypeTableRecord
  2
ByBlock
 70
     0
  3

 72
    65
 73
     0
 40
0.0
  0
LTYPE
  5
15
330
5
100
AcDbSymbolTableRecord
100
AcDbLinetypeTableRecord
  2
ByLayer
 70
     0
  3

 72
    65
 73
     0
 40
0.0
  0
LTYPE
  5
16
330
5
100
AcDbSymbolTableRecord
100
AcDbLinetypeTableRecord
  2
Continuous
 70
     0
  3
Solid line
 72
    65
 73
     0
 40
0.0
  0
ENDTAB
  0
TABLE
  2
LAYER
  5
2
330
0
100
AcDbSymbolTable
 70
     1
  0
LAYER
  5
10
330
2
100
AcDbSymbolTableRecord
100
AcDbLayerTableRecord
  2
0
 70
     0
 62
     7
  6
Continuous
370
    -3
390
F
  0
LAYER
  5
200B7
330
2
100
AcDbSymbolTableRecord
100
AcDbLayerTableRecord
  2
Flurstuecke_Nummern
 70
     0
 62
     7
  6
Continuous
370
    -3
390
F
  0
LAYER
  5
200B8
330
2
100
AcDbSymbolTableRecord
100
AcDbLayerTableRecord
  2
Gebaeude_Hausnummern
 70
     0
 62
     7
  6
Continuous
370
    -3
390
F
  0
LAYER
  5
200B9
330
2
100
AcDbSymbolTableRecord
100
AcDbLayerTableRecord
  2
Lagebezeichnungen
 70
     0
 62
     7
  6
Continuous
370
    -3
390
F
  0
LAYER
  5
200BA
330
2
100
AcDbSymbolTableRecord
100
AcDbLayerTableRecord
  2
Flurstuecke_Flaechen
 70
     0
 62
     7
  6
Continuous
370
    -3
390
F
  0
LAYER
  5
200BB
330
2
100
AcDbSymbolTableRecord
100
AcDbLayerTableRecord
  2
Gebaeude_Flaechen
 70
     0
 62
     7
  6
Continuous
370
    -3
390
F
  0
LAYER
  5
200BC
330
2
100
AcDbSymbolTableRecord
100
AcDbLayerTableRecord
  2
GA_Grundstück
 70
     0
 62
     7
  6
Continuous
370
    -3
390
F
  0
LAYER
  5
200BD
330
2
100
AcDbSymbolTableRecord
100
AcDbLayerTableRecord
  2
Adressen
 70
     0
 62
     7
  6
Continuous
370
    -3
390
F
  0
LAYER
  5
200BE
330
2
100
AcDbSymbolTableRecord
100
AcDbLayerTableRecord
  2
Flurstuecke
 70
     0
 62
     7
  6
Continuous
370
    -3
390
F
  0
ENDTAB
  0
TABLE
  2
STYLE
  5
3
330
0
100
AcDbSymbolTable
 70
     1
  0
STYLE
  5
11
330
3
100
AcDbSymbolTableRecord
100
AcDbTextStyleTableRecord
  2
Standard
 70
     0
 40
0.0
 41
1.0
 50
0.0
 71
     0
 42
0.2
  3
txt
  4

  0
ENDTAB
  0
TABLE
  2
VIEW
  5
6
330
0
100
AcDbSymbolTable
 70
     0
  0
ENDTAB
  0
TABLE
  2
UCS
  5
7
330
0
100
AcDbSymbolTable
 70
     0
  0
ENDTAB
  0
TABLE
  2
APPID
  5
9
330
0
100
AcDbSymbolTable
 70
     1
  0
APPID
  5
12
330
9
100
AcDbSymbolTableRecord
100
AcDbRegAppTableRecord
  2
ACAD
 70
     0
  0
ENDTAB
  0
TABLE
  2
DIMSTYLE
  5
A
330
0
100
AcDbSymbolTable
 70
     1
100
AcDbDimStyleTable
  0
DIMSTYLE
105
27
330
A
100
AcDbSymbolTableRecord
100
AcDbDimStyleTableRecord
  2
Standard
 70
     0
340
11
  0
ENDTAB
  0
TABLE
  2
BLOCK_RECORD
  5
1
330
0
100
AcDbSymbolTable
 70
     1
  0
BLOCK_RECORD
  5
1F
330
1
100
AcDbSymbolTableRecord
100
AcDbBlockTableRecord
  2
*Model_Space
340
22
  0
BLOCK_RECORD
  5
1B
330
1
100
AcDbSymbolTableRecord
100
AcDbBlockTableRecord
  2
*Paper_Space
340
1E
  0
BLOCK_RECORD
  5
23
330
1
100
AcDbSymbolTableRecord
100
AcDbBlockTableRecord
  2
*Paper_Space0
340
26
  0
ENDTAB
  0
ENDSEC
  0
SECTION
  2
BLOCKS
  0
BLOCK
  5
20
330
1F
100
AcDbEntity
  8
0
100
AcDbBlockBegin
  2
*Model_Space
 70
     0
 10
0.0
 20
0.0
 30
0.0
  3
*Model_Space
  1

  0
ENDBLK
  5
21
330
1F
100
AcDbEntity
  8
0
100
AcDbBlockEnd
  0
BLOCK
  5
1C
330
1B
100
AcDbEntity
 67
     1
  8
0
100
AcDbBlockBegin
  2
*Paper_Space
 70
     0
 10
0.0
 20
0.0
 30
0.0
  3
*Paper_Space
  1

  0
ENDBLK
  5
1D
330
1B
100
AcDbEntity
 67
     1
  8
0
100
AcDbBlockEnd
  0
BLOCK
  5
24
330
23
100
AcDbEntity
  8
0
100
AcDbBlockBegin
  2
*Paper_Space0
 70
     0
 10
0.0
 20
0.0
 30
0.0
  3
*Paper_Space0
  1

  0
ENDBLK
  5
25
330
23
100
AcDbEntity
  8
0
100
AcDbBlockEnd
  0
ENDSEC
  0
SECTION
  2
ENTITIES
  0
MTEXT
  5
20000
  8
Flurstuecke_Nummern
100
AcDbEntity
100
AcDbMText
 62
7
 50
0
 40
1.214153
 71
7
  1
389
 10
321699.350083425
 20
5675125.00292976
  0
MTEXT
  5
20001
  8
Flurstuecke_Nummern
100
AcDbEntity
100
AcDbMText
 62
7
 50
0
 40
1.214153
 71
7
  1
29
 10
321769.9097731
 20
5675116.02475724
  0
MTEXT
  5
20002
  8
Flurstuecke_Nummern
100
AcDbEntity
100
AcDbMText
 62
7
 50
0
 40
1.214153
 71
7
  1
275
 10
321675.750477038
 20
5675095.64890469
  0
MTEXT
  5
20003
  8
Flurstuecke_Nummern
100
AcDbEntity
100
AcDbMText
 62
7
 50
0
 40
1.214153
 71
7
  1
274
 10
321686.197961766
 20
5675102.46751678
  0
MTEXT
  5
20004
  8
Flurstuecke_Nummern
100
AcDbEntity
100
AcDbMText
 62
7
 50
0
 40
1.214153
 71
7
  1
28
 10
321756.056754676
 20
5675119.99394932
  0
MTEXT
  5
20005
  8
Flurstuecke_Nummern
100
AcDbEntity
100
AcDbMText
 62
7
 50
0
 40
1.214153
 71
7
  1
328
 10
321652.794046507
 20
5675082.1316561
  0
MTEXT
  5
20006
  8
Flurstuecke_Nummern
100
AcDbEntity
100
AcDbMText
 62
7
 50
360
 40
1.214153
 71
7
  1
329
 10
321661.666574974
 20
5675092.97944806
  0
MTEXT
  5
20007
  8
Flurstuecke_Nummern
100
AcDbEntity
100
AcDbMText
 62
7
 50
0
 40
1.214153
 71
7
  1
333
 10
321635.799361405
 20
5675128.25226836
  0
MTEXT
  5
20008
  8
Flurstuecke_Nummern
100
AcDbEntity
100
AcDbMText
 62
7
 50
360
 40
1.214153
 71
7
  1
315
 10
321795.579086406
 20
5675061.50585442
  0
MTEXT
  5
20009
  8
Flurstuecke_Nummern
100
AcDbEntity
100
AcDbMText
 62
7
 50
0
 40
1.214153
 71
7
  1
26
 10
321762.917297134
 20
5675087.23061822
  0
MTEXT
  5
2000A
  8
Flurstuecke_Nummern
100
AcDbEntity
100
AcDbMText
 62
7
 50
0
 40
1.214153
 71
7
  1
347
 10
321751.909094993
 20
5675103.63727868
  0
MTEXT
  5
2000B
  8
Flurstuecke_Nummern
100
AcDbEntity
100
AcDbMText
 62
7
 50
0
 40
1.214153
 71
7
  1
280
 10
321811.097765378
 20
5675082.77152585
  0
MTEXT
  5
2000C
  8
Flurstuecke_Nummern
100
AcDbEntity
100
AcDbMText
 62
7
 50
0
 40
1.214153
 71
7
  1
337
 10
321692.811128895
 20
5675082.16164999
  0
MTEXT
  5
2000D
  8
Flurstuecke_Nummern
100
AcDbEntity
100
AcDbMText
 62
7
 50
0
 40
1.214153
 71
7
  1
465
 10
321720.772786916
 20
5675067.95454181
  0
MTEXT
  5
2000E
  8
Flurstuecke_Nummern
100
AcDbEntity
100
AcDbMText
 62
7
 50
360
 40
1.214153
 71
7
  1
466
 10
321731.32746762
 20
5675083.19144038
  0
MTEXT
  5
2000F
  8
Flurstuecke_Nummern
100
AcDbEntity
100
AcDbMText
 62
7
 50
360
 40
1.214153
 71
7
  1
15
 10
321712.78256379
 20
5675046.24895993
  0
MTEXT
  5
20010
  8
Flurstuecke_Nummern
100
AcDbEntity
100
AcDbMText
 62
7
 50
0
 40
1.214153
 71
7
  1
13
 10
321709.377030094
 20
5675030.75211427
  0
MTEXT
  5
20011
  8
Flurstuecke_Nummern
100
AcDbEntity
100
AcDbMText
 62
7
 50
0
 40
1.214153
 71
7
  1
9
 10
321680.557804265
 20
5675029.75231778
  0
MTEXT
  5
20012
  8
Flurstuecke_Nummern
100
AcDbEntity
100
AcDbMText
 62
7
 50
0
 40
1.214153
 71
7
  1
11
 10
321686.39586203
 20
5675033.84148544
  0
MTEXT
  5
20013
  8
Flurstuecke_Nummern
100
AcDbEntity
100
AcDbMText
 62
7
 50
0
 40
1.214153
 71
7
  1
397
 10
321720.987178868
 20
5675059.97616579
  0
MTEXT
  5
20014
  8
Flurstuecke_Nummern
100
AcDbEntity
100
AcDbMText
 62
7
 50
0
 40
1.214153
 71
7
  1
14
 10
321709.269834118
 20
5675042.55971086
  0
MTEXT
  5
20015
  8
Flurstuecke_Nummern
100
AcDbEntity
100
AcDbMText
 62
7
 50
0
 40
1.214153
 71
7
  1
6
 10
321659.803014162
 20
5675010.98613758
  0
MTEXT
  5
20016
  8
Flurstuecke_Nummern
100
AcDbEntity
100
AcDbMText
 62
7
 50
0
 40
1.214153
 71
7
  1
12
 10
321703.670905838
 20
5675024.74333734
  0
MTEXT
  5
20017
  8
Gebaeude_Hausnummern
100
AcDbEntity
100
AcDbMText
 62
7
 50
313.4
 40
1.034789
 71
7
  1
10
 10
321730.453408124
 20
5675017.4441918
  0
MTEXT
  5
20018
  8
Gebaeude_Hausnummern
100
AcDbEntity
100
AcDbMText
 62
7
 50
307.2
 40
1.034789
 71
7
  1
13
 10
321783.523662039
 20
5675052.41080703
  0
MTEXT
  5
20019
  8
Gebaeude_Hausnummern
100
AcDbEntity
100
AcDbMText
 62
7
 50
45.2
 40
1.034789
 71
7
  1
257
 10
321638.603374054
 20
5675047.51870147
  0
MTEXT
  5
2001A
  8
Gebaeude_Hausnummern
100
AcDbEntity
100
AcDbMText
 62
7
 50
45.3
 40
1.034789
 71
7
  1
255
 10
321631.818886926
 20
5675040.69009142
  0
MTEXT
  5
2001B
  8
Gebaeude_Hausnummern
100
AcDbEntity
100
AcDbMText
 62
7
 50
16
 40
1.034789
 71
7
  1
121
 10
321647.921832204
 20
5675126.1027059
  0
MTEXT
  5
2001C
  8
Gebaeude_Hausnummern
100
AcDbEntity
100
AcDbMText
 62
7
 50
45.7
 40
1.034789
 71
7
  1
269
 10
321677.120648062
 20
5675088.78030278
  0
MTEXT
  5
2001D
  8
Gebaeude_Hausnummern
100
AcDbEntity
100
AcDbMText
 62
7
 50
45.3
 40
1.034789
 71
7
  1
263
 10
321662.724311362
 20
5675072.05370744
  0
MTEXT
  5
2001E
  8
Gebaeude_Hausnummern
100
AcDbEntity
100
AcDbMText
 62
7
 50
307.1
 40
1.034789
 71
7
  1
11
 10
321778.683351435
 20
5675058.81159085
  0
MTEXT
  5
2001F
  8
Gebaeude_Hausnummern
100
AcDbEntity
100
AcDbMText
 62
7
 50
54.2
 40
1.034789
 71
7
  1
272
 10
321737.351142991
 20
5675125.05291958
  0
MTEXT
  5
20020
  8
Gebaeude_Hausnummern
100
AcDbEntity
100
AcDbMText
 62
7
 50
35.7
 40
1.034789
 71
7
  1
280
 10
321799.299036375
 20
5675129.93192647
  0
MTEXT
  5
20021
  8
Gebaeude_Hausnummern
100
AcDbEntity
100
AcDbMText
 62
7
 50
16
 40
1.034789
 71
7
  1
123
 10
321667.571679171
 20
5675131.77155202
  0
MTEXT
  5
20022
  8
Gebaeude_Hausnummern
100
AcDbEntity
100
AcDbMText
 62
7
 50
16.4
 40
1.034789
 71
7
  1
116
 10
321639.009882776
 20
5675091.26979605
  0
MTEXT
  5
20023
  8
Gebaeude_Hausnummern
100
AcDbEntity
100
AcDbMText
 62
7
 50
45.4
 40
1.034789
 71
7
  1
267
 10
321673.371535837
 20
5675082.83151364
  0
MTEXT
  5
20024
  8
Gebaeude_Hausnummern
100
AcDbEntity
100
AcDbMText
 62
7
 50
45.8
 40
1.034789
 71
7
  1
259-261
 10
321649.04537466
 20
5675058.10654635
  0
MTEXT
  5
20025
  8
Gebaeude_Hausnummern
100
AcDbEntity
100
AcDbMText
 62
7
 50
45.1
 40
1.034789
 71
7
  1
238
 10
321653.963536012
 20
5675026.27302598
  0
MTEXT
  5
20026
  8
Gebaeude_Hausnummern
100
AcDbEntity
100
AcDbMText
 62
7
 50
46
 40
1.034789
 71
7
  1
234
 10
321641.53705355
 20
5675013.66559219
  0
MTEXT
  5
20027
  8
Gebaeude_Hausnummern
100
AcDbEntity
100
AcDbMText
 62
7
 50
45.9
 40
1.034789
 71
7
  1
236
 10
321648.016467286
 20
5675020.31423887
  0
MTEXT
  5
20028
  8
Gebaeude_Hausnummern
100
AcDbEntity
100
AcDbMText
 62
7
 50
48.2
 40
1.034789
 71
7
  1
254
 10
321694.489832744
 20
5675067.54462525
  0
MTEXT
  5
20029
  8
Gebaeude_Hausnummern
100
AcDbEntity
100
AcDbMText
 62
7
 50
45.8
 40
1.034789
 71
7
  1
246
 10
321674.228183152
 20
5675046.85883579
  0
MTEXT
  5
2002A
  8
Gebaeude_Hausnummern
100
AcDbEntity
100
AcDbMText
 62
7
 50
45.1
 40
1.034789
 71
7
  1
250
 10
321684.036130175
 20
5675056.76681904
  0
MTEXT
  5
2002B
  8
Gebaeude_Hausnummern
100
AcDbEntity
100
AcDbMText
 62
7
 50
45.1
 40
1.034789
 71
7
  1
252
 10
321689.882433783
 20
5675062.63562446
  0
MTEXT
  5
2002C
  8
Gebaeude_Hausnummern
100
AcDbEntity
100
AcDbMText
 62
7
 50
45.3
 40
1.034789
 71
7
  1
248
 10
321678.193515269
 20
5675050.80803194
  0
MTEXT
  5
2002D
  8
Gebaeude_Hausnummern
100
AcDbEntity
100
AcDbMText
 62
7
 50
45.8
 40
1.034789
 71
7
  1
242-244
 10
321668.884876045
 20
5675040.36015858
  0
MTEXT
  5
2002E
  8
Gebaeude_Hausnummern
100
AcDbEntity
100
AcDbMText
 62
7
 50
44.8
 40
1.034789
 71
7
  1
240
 10
321660.538162453
 20
5675032.9116747
  0
MTEXT
  5
2002F
  8
Lagebezeichnungen
100
AcDbEntity
100
AcDbMText
 62
7
 50
16.4
 40
1.448705
 71
7
  1
Steinmetzstraße
 10
321634.891414139
 20
5675104.55709146
  0
MTEXT
  5
20030
  8
Lagebezeichnungen
100
AcDbEntity
100
AcDbMText
 62
7
 50
313.3
 40
1.448705
 71
7
  1
Breitenbachstraße
 10
321737.454129935
 20
5675074.28303512
  0
LWPOLYLINE
  5
20031
  8
Flurstuecke_Flaechen
100
AcDbEntity
100
AcDbPolyline
 70
0
 90
56
 62
7
370
0
 10
321683.377883016
 20
5675096.91864624
 10
321683.344899639
 20
5675097.71848344
 10
321683.21296613
 20
5675098.51832063
 10
321682.982082489
 20
5675099.28816393
 10
321682.660494562
 20
5675100.02801334
 10
321682.256448191
 20
5675100.72787088
 10
321681.761697533
 20
5675101.36774064
 10
321681.283438564
 20
5675101.86763889
 10
321680.747458684
 20
5675102.31754731
 10
321680.170249583
 20
5675102.71746591
 10
321679.551811261
 20
5675103.04739875
 10
321678.900389561
 20
5675103.30734584
 10
321678.232476173
 20
5675103.49730717
 10
321677.548071096
 20
5675103.61728275
 10
321676.863666019
 20
5675103.66727258
 10
321676.171015098
 20
5675103.64727665
 10
321675.494855865
 20
5675103.55729496
 10
321674.818696632
 20
5675103.39732752
 10
321671.487375535
 20
5675102.41752696
 10
321670.976133189
 20
5675102.26755749
 10
321671.652292421
 20
5675103.49730717
 10
321675.016596896
 20
5675104.49710367
 10
321675.898902236
 20
5675104.74705279
 10
321676.797699264
 20
5675104.89702226
 10
321677.712987982
 20
5675104.92701616
 10
321678.628276699
 20
5675104.8570304
 10
321679.518827883
 20
5675104.67706704
 10
321680.392887379
 20
5675104.38712605
 10
321681.217471809
 20
5675104.00720339
 10
321682.000827018
 20
5675103.5173031
 10
321682.709969627
 20
5675102.9474191
 10
321683.353145483
 20
5675102.29755138
 10
321683.913862895
 20
5675101.5776979
 10
321684.408613553
 20
5675100.73786885
 10
321684.787922391
 20
5675099.84804997
 10
321685.060035253
 20
5675098.91823923
 10
321685.216706295
 20
5675097.9584346
 10
321685.241443828
 20
5675096.988632
 10
321685.15073954
 20
5675096.02882736
 10
321684.936347588
 20
5675095.07902069
 10
321684.606513816
 20
5675094.16920588
 10
321684.161238224
 20
5675093.3093809
 10
321683.6170125
 20
5675092.5095437
 10
321682.965590801
 20
5675091.77969226
 10
321682.990328334
 20
5675089.6601237
 10
321677.399645898
 20
5675083.92129182
 10
321676.335931984
 20
5675084.9810761
 10
321675.684510284
 20
5675085.60094993
 10
321675.25572638
 20
5675086.02086446
 10
321681.893631042
 20
5675092.80948265
 10
321682.289431568
 20
5675093.35937072
 10
321682.627511184
 20
5675093.93925269
 10
321682.907869891
 20
5675094.55912652
 10
321683.163491064
 20
5675095.31897185
 10
321683.320162106
 20
5675096.10881108
 10
321683.377883016
 20
5675096.91864624
  0
LWPOLYLINE
  5
20032
  8
Flurstuecke_Flaechen
100
AcDbEntity
100
AcDbPolyline
 70
0
 90
9
 62
7
370
0
 10
321652.909488327
 20
5675096.93864217
 10
321661.386216268
 20
5675099.43813341
 10
321667.735516379
 20
5675093.28938497
 10
321675.25572638
 20
5675086.02086446
 10
321675.684510284
 20
5675085.60094993
 10
321676.335931984
 20
5675084.9810761
 10
321670.769987081
 20
5675079.35222184
 10
321662.243784075
 20
5675087.75051239
 10
321652.909488327
 20
5675096.93864217
  0
LWPOLYLINE
  5
20033
  8
Flurstuecke_Flaechen
100
AcDbEntity
100
AcDbPolyline
 70
0
 90
5
 62
7
370
0
 10
321742.277948851
 20
5675091.98964953
 10
321764.038731958
 20
5675108.04638122
 10
321782.896977872
 20
5675084.12125112
 10
321759.627205258
 20
5675068.32446651
 10
321742.277948851
 20
5675091.98964953
  0
LWPOLYLINE
  5
20034
  8
Flurstuecke_Flaechen
100
AcDbEntity
100
AcDbPolyline
 70
0
 90
32
 62
7
370
0
 10
321675.25572638
 20
5675086.02086446
 10
321667.735516379
 20
5675093.28938497
 10
321661.386216268
 20
5675099.43813341
 10
321661.608854064
 20
5675099.4981212
 10
321666.754260907
 20
5675101.01781187
 10
321670.976133189
 20
5675102.26755749
 10
321671.487375535
 20
5675102.41752696
 10
321674.818696632
 20
5675103.39732752
 10
321675.494855865
 20
5675103.55729496
 10
321676.171015098
 20
5675103.64727665
 10
321676.863666019
 20
5675103.66727258
 10
321677.548071096
 20
5675103.61728275
 10
321678.232476173
 20
5675103.49730717
 10
321678.900389561
 20
5675103.30734584
 10
321679.551811261
 20
5675103.04739875
 10
321680.170249583
 20
5675102.71746591
 10
321680.747458684
 20
5675102.31754731
 10
321681.283438564
 20
5675101.86763889
 10
321681.761697533
 20
5675101.36774064
 10
321682.256448191
 20
5675100.72787088
 10
321682.660494562
 20
5675100.02801334
 10
321682.982082489
 20
5675099.28816393
 10
321683.21296613
 20
5675098.51832063
 10
321683.344899639
 20
5675097.71848344
 10
321683.377883016
 20
5675096.91864624
 10
321683.320162106
 20
5675096.10881108
 10
321683.163491064
 20
5675095.31897185
 10
321682.907869891
 20
5675094.55912652
 10
321682.627511184
 20
5675093.93925269
 10
321682.289431568
 20
5675093.35937072
 10
321681.893631042
 20
5675092.80948265
 10
321675.25572638
 20
5675086.02086446
  0
LWPOLYLINE
  5
20035
  8
Flurstuecke_Flaechen
100
AcDbEntity
100
AcDbPolyline
 70
0
 90
9
 62
7
370
0
 10
321739.062069574
 20
5675096.37875614
 10
321735.466881459
 20
5675102.80744759
 10
321734.370184167
 20
5675106.32673125
 10
321733.611566491
 20
5675109.8760088
 10
321731.550105416
 20
5675119.51404701
 10
321742.747961976
 20
5675135.0008947
 10
321764.038731958
 20
5675108.04638122
 10
321742.277948851
 20
5675091.98964953
 10
321739.062069574
 20
5675096.37875614
  0
LWPOLYLINE
  5
20036
  8
Flurstuecke_Flaechen
100
AcDbEntity
100
AcDbPolyline
 70
0
 90
10
 62
7
370
0
 10
321773.183373287
 20
5675049.95820492
 10
321780.431470427
 20
5675055.44708767
 10
321789.056623565
 20
5675061.99575471
 10
321796.090328752
 20
5675067.33466799
 10
321804.327927208
 20
5675056.55686178
 10
321791.035626197
 20
5675046.37893347
 10
321789.971912282
 20
5675047.74865467
 10
321780.439716271
 20
5675040.46013823
 10
321775.978714505
 20
5675046.29894975
 10
321773.183373287
 20
5675049.95820492
  0
LWPOLYLINE
  5
20037
  8
Flurstuecke_Flaechen
100
AcDbEntity
100
AcDbPolyline
 70
0
 90
9
 62
7
370
0
 10
321643.57519258
 20
5675122.69339986
 10
321641.728123456
 20
5675123.72319025
 10
321639.881054333
 20
5675124.74298267
 10
321637.514497019
 20
5675132.99130375
 10
321639.765612513
 20
5675136.04068305
 10
321643.162900365
 20
5675124.13310681
 10
321646.04894587
 20
5675124.95293993
 10
321645.026461176
 20
5675123.10331642
 10
321643.57519258
 20
5675122.69339986
  0
LWPOLYLINE
  5
20038
  8
Flurstuecke_Flaechen
100
AcDbEntity
100
AcDbPolyline
 70
0
 90
16
 62
7
370
0
 10
321693.841859432
 20
5675054.15735019
 10
321695.144702832
 20
5675052.87761068
 10
321700.636435136
 20
5675047.50870351
 10
321703.992493766
 20
5675044.21937304
 10
321712.296058976
 20
5675036.09102755
 10
321721.605617191
 20
5675026.36300766
 10
321713.730835884
 20
5675018.92452175
 10
321712.658876125
 20
5675020.01429992
 10
321696.381579477
 20
5675036.5609319
 10
321693.479042283
 20
5675039.51033156
 10
321691.063009903
 20
5675041.95983297
 10
321689.817887414
 20
5675043.22957451
 10
321687.723442962
 20
5675045.35914105
 10
321679.197239956
 20
5675054.02737665
 10
321686.486566317
 20
5675061.35588495
 10
321693.841859432
 20
5675054.15735019
  0
LWPOLYLINE
  5
20039
  8
Flurstuecke_Flaechen
100
AcDbEntity
100
AcDbPolyline
 70
0
 90
17
 62
7
370
0
 10
321674.818696632
 20
5675049.61827411
 10
321679.197239956
 20
5675054.02737665
 10
321687.723442962
 20
5675045.35914105
 10
321689.817887414
 20
5675043.22957451
 10
321691.063009903
 20
5675041.95983297
 10
321693.479042283
 20
5675039.51033156
 10
321696.381579477
 20
5675036.5609319
 10
321712.658876125
 20
5675020.01429992
 10
321713.730835884
 20
5675018.92452175
 10
321709.360538405
 20
5675014.78536426
 10
321692.613228632
 20
5675031.67192704
 10
321689.141728181
 20
5675035.17121477
 10
321689.075761427
 20
5675035.24120053
 10
321687.286413214
 20
5675037.05083218
 10
321685.554785911
 20
5675038.79047808
 10
321682.709969627
 20
5675041.65989402
 10
321674.818696632
 20
5675049.61827411
  0
LWPOLYLINE
  5
2003A
  8
Flurstuecke_Flaechen
100
AcDbEntity
100
AcDbPolyline
 70
0
 90
14
 62
7
370
0
 10
321690.823880419
 20
5675065.55503023
 10
321696.191925058
 20
5675071.60379901
 10
321704.643915465
 20
5675064.75519303
 10
321706.161150817
 20
5675063.57543317
 10
321722.355989022
 20
5675046.55889684
 10
321723.419702937
 20
5675045.43912477
 10
321732.168543739
 20
5675036.31098278
 10
321725.712047652
 20
5675030.23222009
 10
321721.020162245
 20
5675035.13122291
 10
321716.353014371
 20
5675040.0102298
 10
321715.619134229
 20
5675040.7800731
 10
321704.808832351
 20
5675051.6178671
 10
321698.104960936
 20
5675058.3464975
 10
321690.823880419
 20
5675065.55503023
  0
LWPOLYLINE
  5
2003B
  8
Flurstuecke_Flaechen
100
AcDbEntity
100
AcDbPolyline
 70
0
 90
24
 62
7
370
0
 10
321722.355989022
 20
5675046.55889684
 10
321706.161150817
 20
5675063.57543317
 10
321704.643915465
 20
5675064.75519303
 10
321696.191925058
 20
5675071.60379901
 10
321704.165656496
 20
5675080.60196746
 10
321704.627423777
 20
5675081.06187385
 10
321705.146911968
 20
5675081.45179448
 10
321705.70762938
 20
5675081.77172936
 10
321706.30133017
 20
5675082.02167848
 10
321706.928014337
 20
5675082.19164389
 10
321707.571190192
 20
5675082.27162761
 10
321708.214366047
 20
5675082.28162557
 10
321708.849296058
 20
5675082.20164185
 10
321709.475980225
 20
5675082.03167645
 10
321710.077926859
 20
5675081.79172529
 10
321710.638644272
 20
5675081.48178838
 10
321711.158132462
 20
5675081.09186774
 10
321717.507432573
 20
5675075.69296667
 10
321728.441422115
 20
5675065.82497528
 10
321732.20977296
 20
5675062.0257486
 10
321745.032060847
 20
5675048.42851628
 10
321732.168543739
 20
5675036.31098278
 10
321723.419702937
 20
5675045.43912477
 10
321722.355989022
 20
5675046.55889684
  0
LWPOLYLINE
  5
2003C
  8
Flurstuecke_Flaechen
100
AcDbEntity
100
AcDbPolyline
 70
0
 90
15
 62
7
370
0
 10
321674.818696632
 20
5675049.61827411
 10
321682.709969627
 20
5675041.65989402
 10
321685.554785911
 20
5675038.79047808
 10
321687.286413214
 20
5675037.05083218
 10
321689.075761427
 20
5675035.24120053
 10
321689.141728181
 20
5675035.17121477
 10
321692.613228632
 20
5675031.67192704
 10
321689.059269738
 20
5675028.02266984
 10
321685.620752665
 20
5675031.62193722
 10
321685.464081624
 20
5675031.78190466
 10
321683.765437698
 20
5675033.56154242
 10
321681.844155976
 20
5675035.56113541
 10
321679.26320671
 20
5675038.12061443
 10
321671.289475272
 20
5675045.9990108
 10
321674.818696632
 20
5675049.61827411
  0
LWPOLYLINE
  5
2003D
  8
Flurstuecke_Flaechen
100
AcDbEntity
100
AcDbPolyline
 70
0
 90
15
 62
7
370
0
 10
321695.144702832
 20
5675052.87761068
 10
321693.841859432
 20
5675054.15735019
 10
321686.486566317
 20
5675061.35588495
 10
321690.823880419
 20
5675065.55503023
 10
321698.104960936
 20
5675058.3464975
 10
321704.808832351
 20
5675051.6178671
 10
321715.619134229
 20
5675040.7800731
 10
321716.353014371
 20
5675040.0102298
 10
321721.020162245
 20
5675035.13122291
 10
321725.712047652
 20
5675030.23222009
 10
321721.605617191
 20
5675026.36300766
 10
321712.296058976
 20
5675036.09102755
 10
321703.992493766
 20
5675044.21937304
 10
321700.636435136
 20
5675047.50870351
 10
321695.144702832
 20
5675052.87761068
  0
LWPOLYLINE
  5
2003E
  8
Flurstuecke_Flaechen
100
AcDbEntity
100
AcDbPolyline
 70
0
 90
33
 62
7
370
0
 10
321749.377620793
 20
5675052.51768394
 10
321745.032060847
 20
5675048.42851628
 10
321732.20977296
 20
5675062.0257486
 10
321728.441422115
 20
5675065.82497528
 10
321717.507432573
 20
5675075.69296667
 10
321711.158132462
 20
5675081.09186774
 10
321710.638644272
 20
5675081.48178838
 10
321710.077926859
 20
5675081.79172529
 10
321709.475980225
 20
5675082.03167645
 10
321708.849296058
 20
5675082.20164185
 10
321708.214366047
 20
5675082.28162557
 10
321707.571190192
 20
5675082.27162761
 10
321706.928014337
 20
5675082.19164389
 10
321706.30133017
 20
5675082.02167848
 10
321705.70762938
 20
5675081.77172936
 10
321705.146911968
 20
5675081.45179448
 10
321704.627423777
 20
5675081.06187385
 10
321704.165656496
 20
5675080.60196746
 10
321696.191925058
 20
5675071.60379901
 10
321702.458766726
 20
5675080.02208549
 10
321704.041968832
 20
5675081.96169069
 10
321705.452008207
 20
5675083.38140171
 10
321707.348552396
 20
5675084.95108221
 10
321709.838797374
 20
5675085.19103337
 10
321711.685866498
 20
5675084.77111884
 10
321715.116137726
 20
5675082.5015808
 10
321717.680595304
 20
5675080.10206921
 10
321725.778014406
 20
5675071.19388245
 10
321729.315481611
 20
5675067.6446049
 10
321733.059094923
 20
5675064.32528054
 10
321737.825192929
 20
5675060.67602334
 10
321744.248705638
 20
5675056.16694115
 10
321749.377620793
 20
5675052.51768394
  0
LWPOLYLINE
  5
2003F
  8
Flurstuecke_Flaechen
100
AcDbEntity
100
AcDbPolyline
 70
0
 90
26
 62
7
370
0
 10
321742.277948851
 20
5675091.98964953
 10
321759.627205258
 20
5675068.32446651
 10
321762.183416991
 20
5675064.84517471
 10
321753.53352632
 20
5675056.42688823
 10
321749.377620793
 20
5675052.51768394
 10
321744.248705638
 20
5675056.16694115
 10
321737.825192929
 20
5675060.67602334
 10
321733.059094923
 20
5675064.32528054
 10
321729.315481611
 20
5675067.6446049
 10
321725.778014406
 20
5675071.19388245
 10
321717.680595304
 20
5675080.10206921
 10
321715.116137726
 20
5675082.5015808
 10
321711.685866498
 20
5675084.77111884
 10
321709.838797374
 20
5675085.19103337
 10
321707.348552396
 20
5675084.95108221
 10
321705.452008207
 20
5675083.38140171
 10
321704.041968832
 20
5675081.96169069
 10
321702.458766726
 20
5675080.02208549
 10
321718.917471949
 20
5675102.08759412
 10
321726.792253255
 20
5675113.09535351
 10
321731.550105416
 20
5675119.51404701
 10
321733.611566491
 20
5675109.8760088
 10
321734.370184167
 20
5675106.32673125
 10
321735.466881459
 20
5675102.80744759
 10
321739.062069574
 20
5675096.37875614
 10
321742.277948851
 20
5675091.98964953
  0
LWPOLYLINE
  5
20040
  8
Flurstuecke_Flaechen
100
AcDbEntity
100
AcDbPolyline
 70
0
 90
4
 62
7
370
0
 10
321632.525761218
 20
5675040.56011788
 10
321632.525761218
 20
5675045.71906779
 10
321635.106710484
 20
5675043.15958876
 10
321632.525761218
 20
5675040.56011788
  0
LWPOLYLINE
  5
20041
  8
Flurstuecke_Flaechen
100
AcDbEntity
100
AcDbPolyline
 70
0
 90
10
 62
7
370
0
 10
321639.765612513
 20
5675136.04068305
 10
321639.864562645
 20
5675136.1706566
 10
321675.536085086
 20
5675136.1706566
 10
321672.979873353
 20
5675132.70136276
 10
321671.182279296
 20
5675132.18146859
 10
321663.48066072
 20
5675129.97191833
 10
321652.785800663
 20
5675126.89254513
 10
321646.04894587
 20
5675124.95293993
 10
321643.162900365
 20
5675124.13310681
 10
321639.765612513
 20
5675136.04068305
  0
LWPOLYLINE
  5
20042
  8
Flurstuecke_Flaechen
100
AcDbEntity
100
AcDbPolyline
 70
0
 90
16
 62
7
370
0
 10
321656.207826047
 20
5675064.65521338
 10
321654.929720181
 20
5675065.91495696
 10
321647.401264335
 20
5675073.22346933
 10
321639.988250309
 20
5675080.54197967
 10
321636.838337787
 20
5675083.63135084
 10
321632.525761218
 20
5675087.85049204
 10
321632.525761218
 20
5675090.92986524
 10
321644.391531165
 20
5675094.42915297
 10
321647.112659784
 20
5675095.22899017
 10
321652.686850531
 20
5675096.86865642
 10
321652.909488327
 20
5675096.93864217
 10
321662.243784075
 20
5675087.75051239
 10
321670.769987081
 20
5675079.35222184
 10
321666.374952069
 20
5675074.92312337
 10
321662.573617847
 20
5675071.08390484
 10
321656.207826047
 20
5675064.65521338
  0
LWPOLYLINE
  5
20043
  8
Flurstuecke_Flaechen
100
AcDbEntity
100
AcDbPolyline
 70
0
 90
14
 62
7
370
0
 10
321817.826374327
 20
5675095.49893522
 10
321817.826374327
 20
5675082.14165406
 10
321796.090328752
 20
5675067.33466799
 10
321789.056623565
 20
5675061.99575471
 10
321780.431470427
 20
5675055.44708767
 10
321773.183373287
 20
5675049.95820492
 10
321766.446518494
 20
5675059.03635708
 10
321765.55596731
 20
5675060.24611084
 10
321762.183416991
 20
5675064.84517471
 10
321759.627205258
 20
5675068.32446651
 10
321782.896977872
 20
5675084.12125112
 10
321789.460669935
 20
5675075.79294632
 10
321789.831732929
 20
5675075.32304197
 10
321817.826374327
 20
5675095.49893522
  0
LWPOLYLINE
  5
20044
  8
Flurstuecke_Flaechen
100
AcDbEntity
100
AcDbPolyline
 70
0
 90
14
 62
7
370
0
 10
321686.62674567
 20
5675012.2358832
 10
321674.134291555
 20
5675012.2358832
 10
321673.787966095
 20
5675012.58581197
 10
321663.958919689
 20
5675022.43380744
 10
321655.94395903
 20
5675030.45217532
 10
321662.870468242
 20
5675037.35077113
 10
321662.911697463
 20
5675037.32077723
 10
321670.860691368
 20
5675029.2324236
 10
321673.20251115
 20
5675026.86290591
 10
321676.591553157
 20
5675023.16365888
 10
321676.913141085
 20
5675022.81373011
 10
321680.79693375
 20
5675018.57459297
 10
321683.452095614
 20
5675015.69517907
 10
321686.62674567
 20
5675012.2358832
  0
LWPOLYLINE
  5
20045
  8
Flurstuecke_Flaechen
100
AcDbEntity
100
AcDbPolyline
 70
0
 90
7
 62
7
370
0
 10
321743.597283939
 20
5675136.1706566
 10
321745.691728391
 20
5675136.1706566
 10
321752.082257723
 20
5675128.17228465
 10
321766.570206158
 20
5675109.98598642
 10
321764.038731958
 20
5675108.04638122
 10
321742.747961976
 20
5675135.0008947
 10
321743.597283939
 20
5675136.1706566
  0
LWPOLYLINE
  5
20046
  8
Flurstuecke_Flaechen
100
AcDbEntity
100
AcDbPolyline
 70
0
 90
4
 62
7
370
0
 10
321817.826374327
 20
5675133.17126711
 10
321815.303145971
 20
5675136.1706566
 10
321817.826374327
 20
5675136.1706566
 10
321817.826374327
 20
5675133.17126711
  0
LWPOLYLINE
  5
20047
  8
Flurstuecke_Flaechen
100
AcDbEntity
100
AcDbPolyline
 70
0
 90
10
 62
7
370
0
 10
321674.134291555
 20
5675012.2358832
 10
321660.866728077
 20
5675012.2358832
 10
321659.011413109
 20
5675014.08550671
 10
321658.038403482
 20
5675015.03531338
 10
321656.628364107
 20
5675016.44502644
 10
321649.314300212
 20
5675023.83352253
 10
321655.94395903
 20
5675030.45217532
 10
321663.958919689
 20
5675022.43380744
 10
321673.787966095
 20
5675012.58581197
 10
321674.134291555
 20
5675012.2358832
  0
LWPOLYLINE
  5
20048
  8
Flurstuecke_Flaechen
100
AcDbEntity
100
AcDbPolyline
 70
0
 90
11
 62
7
370
0
 10
321632.525761218
 20
5675061.55584425
 10
321632.525761218
 20
5675087.85049204
 10
321636.838337787
 20
5675083.63135084
 10
321639.988250309
 20
5675080.54197967
 10
321647.401264335
 20
5675073.22346933
 10
321654.929720181
 20
5675065.91495696
 10
321656.207826047
 20
5675064.65521338
 10
321643.022721012
 20
5675051.14796275
 10
321634.298617742
 20
5675059.80620039
 10
321632.558744595
 20
5675061.52585035
 10
321632.525761218
 20
5675061.55584425
  0
LWPOLYLINE
  5
20049
  8
Flurstuecke_Flaechen
100
AcDbEntity
100
AcDbPolyline
 70
0
 90
9
 62
7
370
0
 10
321817.826374327
 20
5675110.57586635
 10
321817.826374327
 20
5675095.49893522
 10
321789.831732929
 20
5675075.32304197
 10
321789.460669935
 20
5675075.79294632
 10
321782.896977872
 20
5675084.12125112
 10
321784.933701415
 20
5675086.87069148
 10
321787.34148795
 20
5675088.61033738
 10
321795.818215891
 20
5675094.72909192
 10
321817.826374327
 20
5675110.57586635
  0
LWPOLYLINE
  5
2004A
  8
Flurstuecke_Flaechen
100
AcDbEntity
100
AcDbPolyline
 70
0
 90
28
 62
7
370
0
 10
321699.803604861
 20
5675136.1706566
 10
321713.021693274
 20
5675136.1706566
 10
321682.990328334
 20
5675089.6601237
 10
321682.965590801
 20
5675091.77969226
 10
321683.6170125
 20
5675092.5095437
 10
321684.161238224
 20
5675093.3093809
 10
321684.606513816
 20
5675094.16920588
 10
321684.936347588
 20
5675095.07902069
 10
321685.15073954
 20
5675096.02882736
 10
321685.241443828
 20
5675096.988632
 10
321685.216706295
 20
5675097.9584346
 10
321685.060035253
 20
5675098.91823923
 10
321684.787922391
 20
5675099.84804997
 10
321684.408613553
 20
5675100.73786885
 10
321683.913862895
 20
5675101.5776979
 10
321683.353145483
 20
5675102.29755138
 10
321682.709969627
 20
5675102.9474191
 10
321682.000827018
 20
5675103.5173031
 10
321681.217471809
 20
5675104.00720339
 10
321680.392887379
 20
5675104.38712605
 10
321679.518827883
 20
5675104.67706704
 10
321678.628276699
 20
5675104.8570304
 10
321677.712987982
 20
5675104.92701616
 10
321676.797699264
 20
5675104.89702226
 10
321675.898902236
 20
5675104.74705279
 10
321675.016596896
 20
5675104.49710367
 10
321671.652292421
 20
5675103.49730717
 10
321699.803604861
 20
5675136.1706566
  0
LWPOLYLINE
  5
2004B
  8
Flurstuecke_Flaechen
100
AcDbEntity
100
AcDbPolyline
 70
0
 90
8
 62
7
370
0
 10
321649.314300212
 20
5675023.83352253
 10
321656.628364107
 20
5675016.44502644
 10
321658.038403482
 20
5675015.03531338
 10
321659.011413109
 20
5675014.08550671
 10
321660.866728077
 20
5675012.2358832
 10
321651.87875779
 20
5675012.2358832
 10
321644.86154429
 20
5675019.23445866
 10
321649.314300212
 20
5675023.83352253
  0
LWPOLYLINE
  5
2004C
  8
Flurstuecke_Flaechen
100
AcDbEntity
100
AcDbPolyline
 70
0
 90
12
 62
7
370
0
 10
321745.691728391
 20
5675136.1706566
 10
321763.873815072
 20
5675136.1706566
 10
321776.671365426
 20
5675119.56403683
 10
321778.683351435
 20
5675116.95456798
 10
321795.818215891
 20
5675094.72909192
 10
321787.34148795
 20
5675088.61033738
 10
321784.933701415
 20
5675086.87069148
 10
321782.896977872
 20
5675084.12125112
 10
321764.038731958
 20
5675108.04638122
 10
321766.570206158
 20
5675109.98598642
 10
321752.082257723
 20
5675128.17228465
 10
321745.691728391
 20
5675136.1706566
  0
LWPOLYLINE
  5
2004D
  8
Flurstuecke_Flaechen
100
AcDbEntity
100
AcDbPolyline
 70
0
 90
7
 62
7
370
0
 10
321632.525761218
 20
5675045.71906779
 10
321632.525761218
 20
5675061.55584425
 10
321632.558744595
 20
5675061.52585035
 10
321634.298617742
 20
5675059.80620039
 10
321643.022721012
 20
5675051.14796275
 10
321635.106710484
 20
5675043.15958876
 10
321632.525761218
 20
5675045.71906779
  0
LWPOLYLINE
  5
2004E
  8
Flurstuecke_Flaechen
100
AcDbEntity
100
AcDbPolyline
 70
0
 90
21
 62
7
370
0
 10
321706.664147319
 20
5675012.2358832
 10
321686.62674567
 20
5675012.2358832
 10
321683.452095614
 20
5675015.69517907
 10
321680.79693375
 20
5675018.57459297
 10
321676.913141085
 20
5675022.81373011
 10
321676.591553157
 20
5675023.16365888
 10
321673.20251115
 20
5675026.86290591
 10
321670.860691368
 20
5675029.2324236
 10
321662.911697463
 20
5675037.32077723
 10
321662.870468242
 20
5675037.35077113
 10
321668.881688736
 20
5675043.5195155
 10
321671.289475272
 20
5675045.9990108
 10
321679.26320671
 20
5675038.12061443
 10
321681.844155976
 20
5675035.56113541
 10
321683.765437698
 20
5675033.56154242
 10
321685.464081624
 20
5675031.78190466
 10
321685.620752665
 20
5675031.62193722
 10
321689.059269738
 20
5675028.02266984
 10
321692.613228632
 20
5675031.67192704
 10
321709.360538405
 20
5675014.78536426
 10
321706.664147319
 20
5675012.2358832
  0
LWPOLYLINE
  5
2004F
  8
Flurstuecke_Flaechen
100
AcDbEntity
100
AcDbPolyline
 70
0
 90
4
 62
7
370
0
 10
321651.87875779
 20
5675012.2358832
 10
321638.083460276
 20
5675012.2358832
 10
321644.86154429
 20
5675019.23445866
 10
321651.87875779
 20
5675012.2358832
  0
LWPOLYLINE
  5
20050
  8
Flurstuecke_Flaechen
100
AcDbEntity
100
AcDbPolyline
 70
0
 90
8
 62
7
370
0
 10
321763.873815072
 20
5675136.1706566
 10
321815.303145971
 20
5675136.1706566
 10
321817.826374327
 20
5675133.17126711
 10
321817.826374327
 20
5675110.57586635
 10
321795.818215891
 20
5675094.72909192
 10
321778.683351435
 20
5675116.95456798
 10
321776.671365426
 20
5675119.56403683
 10
321763.873815072
 20
5675136.1706566
  0
LWPOLYLINE
  5
20051
  8
Flurstuecke_Flaechen
100
AcDbEntity
100
AcDbPolyline
 70
0
 90
26
 62
7
370
0
 10
321632.525761218
 20
5675090.92986524
 10
321632.525761218
 20
5675136.1706566
 10
321639.864562645
 20
5675136.1706566
 10
321639.765612513
 20
5675136.04068305
 10
321637.514497019
 20
5675132.99130375
 10
321639.881054333
 20
5675124.74298267
 10
321641.728123456
 20
5675123.72319025
 10
321643.57519258
 20
5675122.69339986
 10
321645.026461176
 20
5675123.10331642
 10
321646.04894587
 20
5675124.95293993
 10
321652.785800663
 20
5675126.89254513
 10
321663.48066072
 20
5675129.97191833
 10
321671.182279296
 20
5675132.18146859
 10
321672.979873353
 20
5675132.70136276
 10
321675.536085086
 20
5675136.1706566
 10
321699.803604861
 20
5675136.1706566
 10
321671.652292421
 20
5675103.49730717
 10
321670.976133189
 20
5675102.26755749
 10
321666.754260907
 20
5675101.01781187
 10
321661.608854064
 20
5675099.4981212
 10
321661.386216268
 20
5675099.43813341
 10
321652.909488327
 20
5675096.93864217
 10
321652.686850531
 20
5675096.86865642
 10
321647.112659784
 20
5675095.22899017
 10
321644.391531165
 20
5675094.42915297
 10
321632.525761218
 20
5675090.92986524
  0
LWPOLYLINE
  5
20052
  8
Flurstuecke_Flaechen
100
AcDbEntity
100
AcDbPolyline
 70
0
 90
22
 62
7
370
0
 10
321706.664147319
 20
5675012.2358832
 10
321709.360538405
 20
5675014.78536426
 10
321713.730835884
 20
5675018.92452175
 10
321721.605617191
 20
5675026.36300766
 10
321725.712047652
 20
5675030.23222009
 10
321732.168543739
 20
5675036.31098278
 10
321745.032060847
 20
5675048.42851628
 10
321749.377620793
 20
5675052.51768394
 10
321753.53352632
 20
5675056.42688823
 10
321762.183416991
 20
5675064.84517471
 10
321765.55596731
 20
5675060.24611084
 10
321766.446518494
 20
5675059.03635708
 10
321773.183373287
 20
5675049.95820492
 10
321775.978714505
 20
5675046.29894975
 10
321780.439716271
 20
5675040.46013823
 10
321789.971912282
 20
5675047.74865467
 10
321791.035626197
 20
5675046.37893347
 10
321804.327927208
 20
5675056.55686178
 10
321796.090328752
 20
5675067.33466799
 10
321817.826374327
 20
5675082.14165406
 10
321817.826374327
 20
5675012.2358832
 10
321706.664147319
 20
5675012.2358832
  0
LWPOLYLINE
  5
20053
  8
Flurstuecke_Flaechen
100
AcDbEntity
100
AcDbPolyline
 70
0
 90
31
 62
7
370
0
 10
321632.525761218
 20
5675012.2358832
 10
321632.525761218
 20
5675040.56011788
 10
321635.106710484
 20
5675043.15958876
 10
321643.022721012
 20
5675051.14796275
 10
321656.207826047
 20
5675064.65521338
 10
321662.573617847
 20
5675071.08390484
 10
321666.374952069
 20
5675074.92312337
 10
321670.769987081
 20
5675079.35222184
 10
321676.335931984
 20
5675084.9810761
 10
321677.399645898
 20
5675083.92129182
 10
321682.990328334
 20
5675089.6601237
 10
321713.021693274
 20
5675136.1706566
 10
321743.597283939
 20
5675136.1706566
 10
321742.747961976
 20
5675135.0008947
 10
321731.550105416
 20
5675119.51404701
 10
321726.792253255
 20
5675113.09535351
 10
321718.917471949
 20
5675102.08759412
 10
321702.458766726
 20
5675080.02208549
 10
321696.191925058
 20
5675071.60379901
 10
321690.823880419
 20
5675065.55503023
 10
321686.486566317
 20
5675061.35588495
 10
321679.197239956
 20
5675054.02737665
 10
321674.818696632
 20
5675049.61827411
 10
321671.289475272
 20
5675045.9990108
 10
321668.881688736
 20
5675043.5195155
 10
321662.870468242
 20
5675037.35077113
 10
321655.94395903
 20
5675030.45217532
 10
321649.314300212
 20
5675023.83352253
 10
321644.86154429
 20
5675019.23445866
 10
321638.083460276
 20
5675012.2358832
 10
321632.525761218
 20
5675012.2358832
  0
LWPOLYLINE
  5
20054
  8
Gebaeude_Flaechen
100
AcDbEntity
100
AcDbPolyline
 70
0
 90
10
 62
7
370
0
 10
321780.431470427
 20
5675055.44708767
 10
321789.056623565
 20
5675061.99575471
 10
321790.672809047
 20
5675059.82619631
 10
321791.810735561
 20
5675060.64602944
 10
321794.432914048
 20
5675057.21672747
 10
321796.519112656
 20
5675054.497281
 10
321791.505639322
 20
5675050.78803601
 10
321790.40894203
 20
5675052.13776128
 10
321785.741794156
 20
5675048.44851221
 10
321780.431470427
 20
5675055.44708767
  0
LWPOLYLINE
  5
20055
  8
Gebaeude_Flaechen
100
AcDbEntity
100
AcDbPolyline
 70
0
 90
5
 62
7
370
0
 10
321794.432914048
 20
5675057.21672747
 10
321796.35419577
 20
5675058.71642221
 10
321798.498115288
 20
5675055.95698388
 10
321796.519112656
 20
5675054.497281
 10
321794.432914048
 20
5675057.21672747
  0
LWPOLYLINE
  5
20056
  8
Gebaeude_Flaechen
100
AcDbEntity
100
AcDbPolyline
 70
0
 90
10
 62
7
370
0
 10
321739.894899848
 20
5675018.52460315
 10
321750.787660168
 20
5675024.28343095
 10
321750.688710037
 20
5675024.47339229
 10
321757.879086266
 20
5675028.28261693
 10
321758.555245499
 20
5675027.02287335
 10
321766.182651476
 20
5675031.05205322
 10
321767.675149295
 20
5675028.23262711
 10
321767.246365391
 20
5675026.46298731
 10
321742.591290934
 20
5675013.42564103
 10
321739.894899848
 20
5675018.52460315
  0
LWPOLYLINE
  5
20057
  8
Gebaeude_Flaechen
100
AcDbEntity
100
AcDbPolyline
 70
0
 90
5
 62
7
370
0
 10
321652.909488327
 20
5675096.93864217
 10
321661.386216268
 20
5675099.43813341
 10
321667.735516379
 20
5675093.28938497
 10
321662.243784075
 20
5675087.75051239
 10
321652.909488327
 20
5675096.93864217
  0
LWPOLYLINE
  5
20058
  8
Gebaeude_Flaechen
100
AcDbEntity
100
AcDbPolyline
 70
0
 90
5
 62
7
370
0
 10
321775.978714505
 20
5675046.29894975
 10
321774.172874603
 20
5675048.69846134
 10
321778.947218453
 20
5675052.27773278
 10
321780.74481251
 20
5675049.89821713
 10
321775.978714505
 20
5675046.29894975
  0
LWPOLYLINE
  5
20059
  8
Gebaeude_Flaechen
100
AcDbEntity
100
AcDbPolyline
 70
0
 90
23
 62
7
370
0
 10
321675.25572638
 20
5675086.02086446
 10
321667.735516379
 20
5675093.28938497
 10
321661.386216268
 20
5675099.43813341
 10
321661.608854064
 20
5675099.4981212
 10
321666.754260907
 20
5675101.01781187
 10
321668.650805096
 20
5675103.09738857
 10
321669.129064065
 20
5675103.47731124
 10
321672.856185689
 20
5675105.97680248
 10
321673.4911157
 20
5675106.09677806
 10
321677.877904868
 20
5675106.01679434
 10
321678.578801633
 20
5675105.8568269
 10
321682.50382352
 20
5675103.81724205
 10
321683.122261842
 20
5675103.3473377
 10
321685.488819157
 20
5675099.18818428
 10
321685.645490198
 20
5675098.62829825
 10
321685.637244354
 20
5675094.21919571
 10
321685.431098246
 20
5675093.64931171
 10
321683.056295088
 20
5675089.59013794
 10
321677.473858497
 20
5675083.85130607
 10
321677.399645898
 20
5675083.92129182
 10
321676.335931984
 20
5675084.9810761
 10
321675.684510284
 20
5675085.60094993
 10
321675.25572638
 20
5675086.02086446
  0
LWPOLYLINE
  5
2005A
  8
Gebaeude_Flaechen
100
AcDbEntity
100
AcDbPolyline
 70
0
 90
11
 62
7
370
0
 10
321779.829523793
 20
5675064.65521338
 10
321778.823530788
 20
5675065.98494272
 10
321782.756798519
 20
5675068.94434034
 10
321783.490678662
 20
5675067.99453367
 10
321785.255289342
 20
5675069.34425894
 10
321788.075368093
 20
5675065.62501598
 10
321786.970424957
 20
5675064.79518489
 10
321789.056623565
 20
5675061.99575471
 10
321780.431470427
 20
5675055.44708767
 10
321775.789060086
 20
5675061.60583407
 10
321779.829523793
 20
5675064.65521338
  0
LWPOLYLINE
  5
2005B
  8
Gebaeude_Flaechen
100
AcDbEntity
100
AcDbPolyline
 70
0
 90
7
 62
7
370
0
 10
321670.769987081
 20
5675079.35222184
 10
321662.243784075
 20
5675087.75051239
 10
321667.735516379
 20
5675093.28938497
 10
321675.25572638
 20
5675086.02086446
 10
321675.684510284
 20
5675085.60094993
 10
321676.335931984
 20
5675084.9810761
 10
321670.769987081
 20
5675079.35222184
  0
LWPOLYLINE
  5
2005C
  8
Gebaeude_Flaechen
100
AcDbEntity
100
AcDbPolyline
 70
0
 90
6
 62
7
370
0
 10
321643.022721012
 20
5675051.14796275
 10
321634.298617742
 20
5675059.80620039
 10
321647.401264335
 20
5675073.22346933
 10
321654.929720181
 20
5675065.91495696
 10
321656.207826047
 20
5675064.65521338
 10
321643.022721012
 20
5675051.14796275
  0
LWPOLYLINE
  5
2005D
  8
Gebaeude_Flaechen
100
AcDbEntity
100
AcDbPolyline
 70
0
 90
5
 62
7
370
0
 10
321743.861150956
 20
5675029.48237272
 10
321746.804917371
 20
5675024.13346148
 10
321741.577052085
 20
5675021.26404554
 10
321738.641531514
 20
5675026.61295678
 10
321743.861150956
 20
5675029.48237272
  0
LWPOLYLINE
  5
2005E
  8
Gebaeude_Flaechen
100
AcDbEntity
100
AcDbPolyline
 70
0
 90
9
 62
7
370
0
 10
321663.958919689
 20
5675022.43380744
 10
321665.797742968
 20
5675024.24343909
 10
321666.861456883
 20
5675023.17365684
 10
321667.240765721
 20
5675023.54358155
 10
321674.901155075
 20
5675015.86514447
 10
321676.063819122
 20
5675016.93492672
 10
321677.086303815
 20
5675015.92513226
 10
321673.787966095
 20
5675012.58581197
 10
321663.958919689
 20
5675022.43380744
  0
LWPOLYLINE
  5
2005F
  8
Gebaeude_Flaechen
100
AcDbEntity
100
AcDbPolyline
 70
0
 90
9
 62
7
370
0
 10
321709.410013471
 20
5675055.23713041
 10
321702.071212044
 20
5675062.23570587
 10
321704.643915465
 20
5675064.75519303
 10
321706.161150817
 20
5675063.57543317
 10
321722.355989022
 20
5675046.55889684
 10
321719.923464953
 20
5675044.22937101
 10
321719.601877026
 20
5675043.9194341
 10
321709.104917232
 20
5675054.91719553
 10
321709.410013471
 20
5675055.23713041
  0
LWPOLYLINE
  5
20060
  8
Gebaeude_Flaechen
100
AcDbEntity
100
AcDbPolyline
 70
0
 90
6
 62
7
370
0
 10
321693.841859432
 20
5675054.15735019
 10
321686.486566317
 20
5675061.35588495
 10
321690.823880419
 20
5675065.55503023
 10
321698.104960936
 20
5675058.3464975
 10
321695.383832317
 20
5675055.67704086
 10
321693.841859432
 20
5675054.15735019
  0
LWPOLYLINE
  5
20061
  8
Gebaeude_Flaechen
100
AcDbEntity
100
AcDbPolyline
 70
0
 90
5
 62
7
370
0
 10
321679.26320671
 20
5675038.12061443
 10
321671.289475272
 20
5675045.9990108
 10
321674.818696632
 20
5675049.61827411
 10
321682.709969627
 20
5675041.65989402
 10
321679.26320671
 20
5675038.12061443
  0
LWPOLYLINE
  5
20062
  8
Gebaeude_Flaechen
100
AcDbEntity
100
AcDbPolyline
 70
0
 90
7
 62
7
370
0
 10
321693.841859432
 20
5675054.15735019
 10
321695.144702832
 20
5675052.87761068
 10
321690.007541833
 20
5675047.67866891
 10
321687.723442962
 20
5675045.35914105
 10
321679.197239956
 20
5675054.02737665
 10
321686.486566317
 20
5675061.35588495
 10
321693.841859432
 20
5675054.15735019
  0
LWPOLYLINE
  5
20063
  8
Gebaeude_Flaechen
100
AcDbEntity
100
AcDbPolyline
 70
0
 90
5
 62
7
370
0
 10
321700.339584741
 20
5675032.39178052
 10
321696.818609225
 20
5675035.90106621
 10
321698.756382635
 20
5675037.85066938
 10
321702.23612893
 20
5675034.31138979
 10
321700.339584741
 20
5675032.39178052
  0
LWPOLYLINE
  5
20064
  8
Gebaeude_Flaechen
100
AcDbEntity
100
AcDbPolyline
 70
0
 90
6
 62
7
370
0
 10
321674.670271435
 20
5675020.75414933
 10
321675.288709757
 20
5675021.31403537
 10
321676.913141085
 20
5675022.81373011
 10
321680.79693375
 20
5675018.57459297
 10
321678.636522543
 20
5675016.58499795
 10
321674.670271435
 20
5675020.75414933
  0
LWPOLYLINE
  5
20065
  8
Gebaeude_Flaechen
100
AcDbEntity
100
AcDbPolyline
 70
0
 90
5
 62
7
370
0
 10
321716.897240095
 20
5675031.18202676
 10
321712.254829754
 20
5675036.05103569
 10
321716.353014371
 20
5675040.0102298
 10
321721.020162245
 20
5675035.13122291
 10
321716.897240095
 20
5675031.18202676
  0
LWPOLYLINE
  5
20066
  8
Gebaeude_Flaechen
100
AcDbEntity
100
AcDbPolyline
 70
0
 90
5
 62
7
370
0
 10
321712.658876125
 20
5675020.01429992
 10
321710.820052846
 20
5675021.85392547
 10
321714.464716027
 20
5675025.40320303
 10
321716.262310084
 20
5675023.52358562
 10
321712.658876125
 20
5675020.01429992
  0
LWPOLYLINE
  5
20067
  8
Gebaeude_Flaechen
100
AcDbEntity
100
AcDbPolyline
 70
0
 90
7
 62
7
370
0
 10
321689.059269738
 20
5675028.02266984
 10
321685.620752665
 20
5675031.62193722
 10
321685.464081624
 20
5675031.78190466
 10
321689.075761427
 20
5675035.24120053
 10
321689.141728181
 20
5675035.17121477
 10
321692.613228632
 20
5675031.67192704
 10
321689.059269738
 20
5675028.02266984
  0
LWPOLYLINE
  5
20068
  8
Gebaeude_Flaechen
100
AcDbEntity
100
AcDbPolyline
 70
0
 90
5
 62
7
370
0
 10
321719.923464953
 20
5675044.22937101
 10
321722.355989022
 20
5675046.55889684
 10
321723.419702937
 20
5675045.43912477
 10
321720.954195491
 20
5675043.19958062
 10
321719.923464953
 20
5675044.22937101
  0
LWPOLYLINE
  5
20069
  8
Gebaeude_Flaechen
100
AcDbEntity
100
AcDbPolyline
 70
0
 90
7
 62
7
370
0
 10
321685.554785911
 20
5675038.79047808
 10
321682.709969627
 20
5675041.65989402
 10
321674.818696632
 20
5675049.61827411
 10
321679.197239956
 20
5675054.02737665
 10
321687.723442962
 20
5675045.35914105
 10
321689.817887414
 20
5675043.22957451
 10
321685.554785911
 20
5675038.79047808
  0
LWPOLYLINE
  5
2006A
  8
Gebaeude_Flaechen
100
AcDbEntity
100
AcDbPolyline
 70
0
 90
12
 62
7
370
0
 10
321687.723442962
 20
5675045.35914105
 10
321690.007541833
 20
5675047.67866891
 10
321695.507519981
 20
5675042.41973935
 10
321699.580967065
 20
5675046.46891516
 10
321700.636435136
 20
5675047.50870351
 10
321703.992493766
 20
5675044.21937304
 10
321702.895796474
 20
5675043.1195969
 10
321696.381579477
 20
5675036.5609319
 10
321693.479042283
 20
5675039.51033156
 10
321691.063009903
 20
5675041.95983297
 10
321689.817887414
 20
5675043.22957451
 10
321687.723442962
 20
5675045.35914105
  0
LWPOLYLINE
  5
2006B
  8
Gebaeude_Flaechen
100
AcDbEntity
100
AcDbPolyline
 70
0
 90
5
 62
7
370
0
 10
321695.383832317
 20
5675055.67704086
 10
321698.104960936
 20
5675058.3464975
 10
321704.808832351
 20
5675051.6178671
 10
321702.35157075
 20
5675049.01839621
 10
321695.383832317
 20
5675055.67704086
  0
LWPOLYLINE
  5
2006C
  8
Gebaeude_Flaechen
100
AcDbEntity
100
AcDbPolyline
 70
0
 90
7
 62
7
370
0
 10
321679.26320671
 20
5675038.12061443
 10
321682.709969627
 20
5675041.65989402
 10
321685.554785911
 20
5675038.79047808
 10
321687.286413214
 20
5675037.05083218
 10
321683.765437698
 20
5675033.56154242
 10
321681.844155976
 20
5675035.56113541
 10
321679.26320671
 20
5675038.12061443
  0
LWPOLYLINE
  5
2006D
  8
Gebaeude_Flaechen
100
AcDbEntity
100
AcDbPolyline
 70
0
 90
6
 62
7
370
0
 10
321690.823880419
 20
5675065.55503023
 10
321696.191925058
 20
5675071.60379901
 10
321704.643915465
 20
5675064.75519303
 10
321702.071212044
 20
5675062.23570587
 10
321698.104960936
 20
5675058.3464975
 10
321690.823880419
 20
5675065.55503023
  0
LWPOLYLINE
  5
2006E
  8
Gebaeude_Flaechen
100
AcDbEntity
100
AcDbPolyline
 70
0
 90
5
 62
7
370
0
 10
321721.54789628
 20
5675035.97105197
 10
321718.035166609
 20
5675039.55032342
 10
321723.543390601
 20
5675044.94922448
 10
321727.047874429
 20
5675041.36995304
 10
321721.54789628
 20
5675035.97105197
  0
LWPOLYLINE
  5
2006F
  8
Gebaeude_Flaechen
100
AcDbEntity
100
AcDbPolyline
 70
0
 90
7
 62
7
370
0
 10
321676.591553157
 20
5675023.16365888
 10
321673.20251115
 20
5675026.86290591
 10
321674.991859363
 20
5675028.6625396
 10
321675.354676512
 20
5675028.27261896
 10
321676.698749133
 20
5675028.30261286
 10
321679.156010734
 20
5675025.64315419
 10
321676.591553157
 20
5675023.16365888
  0
LWPOLYLINE
  5
20070
  8
Gebaeude_Flaechen
100
AcDbEntity
100
AcDbPolyline
 70
0
 90
9
 62
7
370
0
 10
321685.554785911
 20
5675038.79047808
 10
321689.817887414
 20
5675043.22957451
 10
321691.063009903
 20
5675041.95983297
 10
321689.817887414
 20
5675040.57011584
 10
321692.110232129
 20
5675038.05062868
 10
321689.141728181
 20
5675035.17121477
 10
321689.075761427
 20
5675035.24120053
 10
321687.286413214
 20
5675037.05083218
 10
321685.554785911
 20
5675038.79047808
  0
LWPOLYLINE
  5
20071
  8
Gebaeude_Flaechen
100
AcDbEntity
100
AcDbPolyline
 70
0
 90
7
 62
7
370
0
 10
321655.94395903
 20
5675030.45217532
 10
321662.911697463
 20
5675037.32077723
 10
321670.860691368
 20
5675029.2324236
 10
321669.351701861
 20
5675027.74272682
 10
321665.797742968
 20
5675024.24343909
 10
321663.958919689
 20
5675022.43380744
 10
321655.94395903
 20
5675030.45217532
  0
LWPOLYLINE
  5
20072
  8
Gebaeude_Flaechen
100
AcDbEntity
100
AcDbPolyline
 70
0
 90
11
 62
7
370
0
 10
321662.870468242
 20
5675037.35077113
 10
321668.881688736
 20
5675043.5195155
 10
321671.289475272
 20
5675045.9990108
 10
321679.26320671
 20
5675038.12061443
 10
321681.844155976
 20
5675035.56113541
 10
321679.073552291
 20
5675032.77170319
 10
321674.991859363
 20
5675028.6625396
 10
321673.20251115
 20
5675026.86290591
 10
321670.860691368
 20
5675029.2324236
 10
321662.911697463
 20
5675037.32077723
 10
321662.870468242
 20
5675037.35077113
  0
LWPOLYLINE
  5
20073
  8
Gebaeude_Flaechen
100
AcDbEntity
100
AcDbPolyline
 70
0
 90
4
 62
7
370
0
 10
321632.525761218
 20
5675080.06207735
 10
321632.525761218
 20
5675087.85049204
 10
321636.838337787
 20
5675083.63135084
 10
321632.525761218
 20
5675080.06207735
  0
LWPOLYLINE
  5
20074
  8
Gebaeude_Flaechen
100
AcDbEntity
100
AcDbPolyline
 70
0
 90
5
 62
7
370
0
 10
321736.167778224
 20
5675012.2358832
 10
321715.264562924
 20
5675012.2358832
 10
321726.957170141
 20
5675023.31362835
 10
321736.852183301
 20
5675012.88575092
 10
321736.167778224
 20
5675012.2358832
  0
LWPOLYLINE
  5
20075
  8
Gebaeude_Flaechen
100
AcDbEntity
100
AcDbPolyline
 70
0
 90
10
 62
7
370
0
 10
321674.134291555
 20
5675012.2358832
 10
321660.866728077
 20
5675012.2358832
 10
321659.011413109
 20
5675014.08550671
 10
321658.038403482
 20
5675015.03531338
 10
321656.628364107
 20
5675016.44502644
 10
321649.314300212
 20
5675023.83352253
 10
321655.94395903
 20
5675030.45217532
 10
321663.958919689
 20
5675022.43380744
 10
321673.787966095
 20
5675012.58581197
 10
321674.134291555
 20
5675012.2358832
  0
LWPOLYLINE
  5
20076
  8
Gebaeude_Flaechen
100
AcDbEntity
100
AcDbPolyline
 70
0
 90
7
 62
7
370
0
 10
321632.525761218
 20
5675045.71906779
 10
321632.525761218
 20
5675061.49585646
 10
321632.558744595
 20
5675061.52585035
 10
321634.298617742
 20
5675059.80620039
 10
321643.022721012
 20
5675051.14796275
 10
321635.106710484
 20
5675043.15958876
 10
321632.525761218
 20
5675045.71906779
  0
LWPOLYLINE
  5
20077
  8
Gebaeude_Flaechen
100
AcDbEntity
100
AcDbPolyline
 70
0
 90
15
 62
7
370
0
 10
321743.597283939
 20
5675136.1706566
 10
321763.873815072
 20
5675136.1706566
 10
321776.671365426
 20
5675119.56403683
 10
321778.683351435
 20
5675116.95456798
 10
321795.818215891
 20
5675094.72909192
 10
321787.34148795
 20
5675088.61033738
 10
321782.311522927
 20
5675084.6411453
 10
321782.550652412
 20
5675084.35120431
 10
321782.262047861
 20
5675084.15124501
 10
321755.405332976
 20
5675118.22430953
 10
321741.379151822
 20
5675099.47812527
 10
321733.611566491
 20
5675109.8760088
 10
321731.550105416
 20
5675119.51404701
 10
321742.747961976
 20
5675135.0008947
 10
321743.597283939
 20
5675136.1706566
  0
LWPOLYLINE
  5
20078
  8
Gebaeude_Flaechen
100
AcDbEntity
100
AcDbPolyline
 70
0
 90
4
 62
7
370
0
 10
321817.826374327
 20
5675133.17126711
 10
321815.303145971
 20
5675136.1706566
 10
321817.826374327
 20
5675136.1706566
 10
321817.826374327
 20
5675133.17126711
  0
LWPOLYLINE
  5
20079
  8
Gebaeude_Flaechen
100
AcDbEntity
100
AcDbPolyline
 70
0
 90
9
 62
7
370
0
 10
321639.8563168
 20
5675136.1706566
 10
321674.167274933
 20
5675136.1706566
 10
321671.182279296
 20
5675132.18146859
 10
321663.48066072
 20
5675129.97191833
 10
321652.785800663
 20
5675126.89254513
 10
321646.04894587
 20
5675124.95293993
 10
321643.162900365
 20
5675124.13310681
 10
321639.765612513
 20
5675136.04068305
 10
321639.8563168
 20
5675136.1706566
  0
LWPOLYLINE
  5
2007A
  8
Gebaeude_Flaechen
100
AcDbEntity
100
AcDbPolyline
 70
0
 90
4
 62
7
370
0
 10
321651.87875779
 20
5675012.2358832
 10
321638.083460276
 20
5675012.2358832
 10
321644.86154429
 20
5675019.23445866
 10
321651.87875779
 20
5675012.2358832
  0
LWPOLYLINE
  5
2007B
  8
Gebaeude_Flaechen
100
AcDbEntity
100
AcDbPolyline
 70
0
 90
4
 62
7
370
0
 10
321632.525761218
 20
5675040.56011788
 10
321632.525761218
 20
5675045.71906779
 10
321635.106710484
 20
5675043.15958876
 10
321632.525761218
 20
5675040.56011788
  0
LWPOLYLINE
  5
2007C
  8
Gebaeude_Flaechen
100
AcDbEntity
100
AcDbPolyline
 70
0
 90
8
 62
7
370
0
 10
321782.311522927
 20
5675084.6411453
 10
321787.34148795
 20
5675088.61033738
 10
321795.818215891
 20
5675094.72909192
 10
321817.826374327
 20
5675110.57586635
 10
321817.826374327
 20
5675095.49893522
 10
321789.831732929
 20
5675075.32304197
 10
321782.550652412
 20
5675084.35120431
 10
321782.311522927
 20
5675084.6411453
  0
LWPOLYLINE
  5
2007D
  8
Gebaeude_Flaechen
100
AcDbEntity
100
AcDbPolyline
 70
0
 90
20
 62
7
370
0
 10
321632.525761218
 20
5675087.85049204
 10
321632.525761218
 20
5675090.92986524
 10
321644.391531165
 20
5675094.42915297
 10
321645.414015859
 20
5675093.52933613
 10
321647.112659784
 20
5675095.22899017
 10
321652.686850531
 20
5675096.86865642
 10
321652.909488327
 20
5675096.93864217
 10
321662.243784075
 20
5675087.75051239
 10
321670.769987081
 20
5675079.35222184
 10
321666.374952069
 20
5675074.92312337
 10
321667.257257409
 20
5675074.05330042
 10
321664.016640599
 20
5675070.78396589
 10
321663.018893439
 20
5675070.64399438
 10
321662.573617847
 20
5675071.08390484
 10
321656.207826047
 20
5675064.65521338
 10
321654.929720181
 20
5675065.91495696
 10
321647.401264335
 20
5675073.22346933
 10
321639.988250309
 20
5675080.54197967
 10
321636.838337787
 20
5675083.63135084
 10
321632.525761218
 20
5675087.85049204
  0
LWPOLYLINE
  5
2007E
  8
Gebaeude_Flaechen
100
AcDbEntity
100
AcDbPolyline
 70
0
 90
8
 62
7
370
0
 10
321706.664147319
 20
5675012.2358832
 10
321699.152183162
 20
5675012.2358832
 10
321700.232388765
 20
5675013.26567359
 10
321700.47151825
 20
5675016.58499795
 10
321689.059269738
 20
5675028.02266984
 10
321692.613228632
 20
5675031.67192704
 10
321709.360538405
 20
5675014.78536426
 10
321706.664147319
 20
5675012.2358832
  0
LWPOLYLINE
  5
2007F
  8
Gebaeude_Flaechen
100
AcDbEntity
100
AcDbPolyline
 70
0
 90
9
 62
7
370
0
 10
321693.940809564
 20
5675012.2358832
 10
321686.62674567
 20
5675012.2358832
 10
321683.452095614
 20
5675015.69517907
 10
321680.79693375
 20
5675018.57459297
 10
321676.913141085
 20
5675022.81373011
 10
321676.591553157
 20
5675023.16365888
 10
321679.156010734
 20
5675025.64315419
 10
321680.533066732
 20
5675026.98288149
 10
321693.940809564
 20
5675012.2358832
  0
LWPOLYLINE
  5
20080
  8
Gebaeude_Flaechen
100
AcDbEntity
100
AcDbPolyline
 70
0
 90
7
 62
7
370
0
 10
321649.314300212
 20
5675023.83352253
 10
321656.628364107
 20
5675016.44502644
 10
321658.038403482
 20
5675015.03531338
 10
321655.276045641
 20
5675012.2358832
 10
321651.87875779
 20
5675012.2358832
 10
321644.86154429
 20
5675019.23445866
 10
321649.314300212
 20
5675023.83352253
  0
LWPOLYLINE
  5
20081
  8
Gebaeude_Flaechen
100
AcDbEntity
100
AcDbPolyline
 70
0
 90
10
 62
7
370
0
 10
321632.525761218
 20
5675061.55584425
 10
321632.525761218
 20
5675069.21428539
 10
321635.238643992
 20
5675071.99371965
 10
321633.399820713
 20
5675073.8033513
 10
321635.857082315
 20
5675076.3128405
 10
321639.988250309
 20
5675080.54197967
 10
321647.401264335
 20
5675073.22346933
 10
321634.298617742
 20
5675059.80620039
 10
321632.558744595
 20
5675061.52585035
 10
321632.525761218
 20
5675061.55584425
  0
LWPOLYLINE
  5
20082
  8
Gebaeude_Flaechen
100
AcDbEntity
100
AcDbPolyline
 70
0
 90
9
 62
7
370
0
 10
321798.489869444
 20
5675136.1706566
 10
321815.303145971
 20
5675136.1706566
 10
321817.826374327
 20
5675133.17126711
 10
321817.826374327
 20
5675110.57586635
 10
321795.818215891
 20
5675094.72909192
 10
321778.683351435
 20
5675116.95456798
 10
321800.947131045
 20
5675132.94131392
 10
321801.466619236
 20
5675133.32123659
 10
321798.489869444
 20
5675136.1706566
  0
LWPOLYLINE
  5
20083
  8
Gebaeude_Flaechen
100
AcDbEntity
100
AcDbPolyline
 70
0
 90
6
 62
7
370
0
 10
321657.461194381
 20
5675012.47583436
 10
321657.692078021
 20
5675012.2358832
 10
321655.276045641
 20
5675012.2358832
 10
321658.038403482
 20
5675015.03531338
 10
321659.011413109
 20
5675014.08550671
 10
321657.461194381
 20
5675012.47583436
  0
LWPOLYLINE
  5
20084
  8
Gebaeude_Flaechen
100
AcDbEntity
100
AcDbPolyline
 70
0
 90
6
 62
7
370
0
 10
321632.525761218
 20
5675079.64216283
 10
321632.525761218
 20
5675080.06207735
 10
321636.838337787
 20
5675083.63135084
 10
321639.988250309
 20
5675080.54197967
 10
321635.857082315
 20
5675076.3128405
 10
321632.525761218
 20
5675079.64216283
  0
LWPOLYLINE
  5
20085
  8
GA_Grundstück
100
AcDbEntity
100
AcDbPolyline
 70
0
 90
16
 62
7
370
0
 10
321696.167187525
 20
5675071.6637868
 10
321706.30133017
 20
5675085.26101912
 10
321711.116903241
 20
5675081.1318596
 10
321710.605660894
 20
5675081.5317782
 10
321710.044943482
 20
5675081.84171511
 10
321709.442996848
 20
5675082.08166627
 10
321708.816312681
 20
5675082.24163371
 10
321708.18138267
 20
5675082.32161743
 10
321707.538206815
 20
5675082.32161743
 10
321706.895030959
 20
5675082.23163575
 10
321706.268346793
 20
5675082.06167034
 10
321705.674646003
 20
5675081.82171918
 10
321705.105682746
 20
5675081.50178431
 10
321704.5944404
 20
5675081.10186571
 10
321704.140918963
 20
5675080.65195728
 10
321696.167187525
 20
5675071.6637868
  0
LWPOLYLINE
  5
20086
  8
GA_Grundstück
100
AcDbEntity
100
AcDbPolyline
 70
0
 90
25
 62
7
370
0
 10
321696.167187525
 20
5675071.6637868
 10
321704.140918963
 20
5675080.65195728
 10
321704.5944404
 20
5675081.10186571
 10
321705.105682746
 20
5675081.50178431
 10
321705.674646003
 20
5675081.82171918
 10
321706.268346793
 20
5675082.06167034
 10
321706.895030959
 20
5675082.23163575
 10
321707.538206815
 20
5675082.32161743
 10
321708.18138267
 20
5675082.32161743
 10
321708.816312681
 20
5675082.24163371
 10
321709.442996848
 20
5675082.08166627
 10
321710.044943482
 20
5675081.84171511
 10
321710.605660894
 20
5675081.5317782
 10
321711.116903241
 20
5675081.1318596
 10
321717.466203352
 20
5675075.73295853
 10
321728.408438738
 20
5675065.8749651
 10
321732.185035427
 20
5675062.07573843
 10
321740.422633883
 20
5675053.37750893
 10
321744.99907747
 20
5675048.51849797
 10
321732.143806206
 20
5675036.37097057
 10
321723.411457092
 20
5675045.48911459
 10
321722.339497333
 20
5675046.61888463
 10
321706.136413284
 20
5675063.63542096
 10
321704.627423777
 20
5675064.81518082
 10
321696.167187525
 20
5675071.6637868
  0
LWPOLYLINE
  5
20087
  8
GA_Grundstück
100
AcDbEntity
100
AcDbPolyline
 70
0
 90
24
 62
7
370
0
 10
321722.331251489
 20
5675046.5688948
 10
321723.403211248
 20
5675045.44912273
 10
321732.15205205
 20
5675036.32098074
 10
321744.99907747
 20
5675048.46850814
 10
321732.185035427
 20
5675062.03574657
 10
321728.408438738
 20
5675065.83497324
 10
321717.466203352
 20
5675075.69296667
 10
321711.116903241
 20
5675081.09186774
 10
321710.605660894
 20
5675081.48178838
 10
321710.036697638
 20
5675081.80172325
 10
321709.442996848
 20
5675082.04167441
 10
321708.816312681
 20
5675082.20164185
 10
321708.173136826
 20
5675082.28162557
 10
321707.52996097
 20
5675082.27162761
 10
321706.886785115
 20
5675082.19164389
 10
321706.268346793
 20
5675082.02167848
 10
321705.666400159
 20
5675081.77172936
 10
321705.105682746
 20
5675081.45179448
 10
321704.5944404
 20
5675081.06187385
 10
321704.132673119
 20
5675080.60196746
 10
321696.167187525
 20
5675071.62379494
 10
321704.619177933
 20
5675064.765191
 10
321706.136413284
 20
5675063.58543113
 10
321722.331251489
 20
5675046.5688948
  0
POINT
  5
20088
  8
Adressen
100
AcDbEntity
100
AcDbPoint
 10
321778.683351435
 20
5675058.81640186
  0
POINT
  5
20089
  8
Adressen
100
AcDbEntity
100
AcDbPoint
 10
321660.536894305
 20
5675032.9116747
  0
POINT
  5
2008A
  8
Adressen
100
AcDbEntity
100
AcDbPoint
 10
321674.224995843
 20
5675046.85883579
  0
POINT
  5
2008B
  8
Adressen
100
AcDbEntity
100
AcDbPoint
 10
321673.37567388
 20
5675082.83151364
  0
POINT
  5
2008C
  8
Adressen
100
AcDbEntity
100
AcDbPoint
 10
321641.538469038
 20
5675013.66559219
  0
POINT
  5
2008D
  8
Adressen
100
AcDbEntity
100
AcDbPoint
 10
321694.493281132
 20
5675067.54462525
  0
POINT
  5
2008E
  8
Adressen
100
AcDbEntity
100
AcDbPoint
 10
321678.191246951
 20
5675050.80803194
  0
POINT
  5
2008F
  8
Adressen
100
AcDbEntity
100
AcDbPoint
 10
321799.297962185
 20
5675129.93192647
  0
POINT
  5
20090
  8
Adressen
100
AcDbEntity
100
AcDbPoint
 10
321647.920752526
 20
5675126.1027059
  0
POINT
  5
20091
  8
Adressen
100
AcDbEntity
100
AcDbPoint
 10
321648.019702657
 20
5675020.31423887
  0
POINT
  5
20092
  8
Adressen
100
AcDbEntity
100
AcDbPoint
 10
321668.881688736
 20
5675040.36015858
  0
POINT
  5
20093
  8
Adressen
100
AcDbEntity
100
AcDbPoint
 10
321730.453408124
 20
5675017.44482293
  0
POINT
  5
20094
  8
Adressen
100
AcDbEntity
100
AcDbPoint
 10
321689.883854168
 20
5675062.63562446
  0
POINT
  5
20095
  8
Adressen
100
AcDbEntity
100
AcDbPoint
 10
321737.346933959
 20
5675125.05291958
  0
POINT
  5
20096
  8
Adressen
100
AcDbEntity
100
AcDbPoint
 10
321639.006994837
 20
5675091.26979605
  0
POINT
  5
20097
  8
Adressen
100
AcDbEntity
100
AcDbPoint
 10
321684.03755056
 20
5675056.76681904
  0
POINT
  5
20098
  8
Adressen
100
AcDbEntity
100
AcDbPoint
 10
321649.042187351
 20
5675058.10654635
  0
POINT
  5
20099
  8
Adressen
100
AcDbEntity
100
AcDbPoint
 10
321653.964956398
 20
5675026.27302598
  0
POINT
  5
2009A
  8
Adressen
100
AcDbEntity
100
AcDbPoint
 10
321649.042187351
 20
5675058.10654635
  0
POINT
  5
2009B
  8
Adressen
100
AcDbEntity
100
AcDbPoint
 10
321677.119287192
 20
5675088.78030278
  0
POINT
  5
2009C
  8
Adressen
100
AcDbEntity
100
AcDbPoint
 10
321662.722043044
 20
5675072.05370744
  0
POINT
  5
2009D
  8
Adressen
100
AcDbEntity
100
AcDbPoint
 10
321638.602948467
 20
5675047.51870147
  0
POINT
  5
2009E
  8
Adressen
100
AcDbEntity
100
AcDbPoint
 10
321783.523662039
 20
5675052.40770633
  0
POINT
  5
2009F
  8
Adressen
100
AcDbEntity
100
AcDbPoint
 10
321667.578845337
 20
5675131.77155202
  0
POINT
  5
200A0
  8
Adressen
100
AcDbEntity
100
AcDbPoint
 10
321668.881688736
 20
5675040.36015858
  0
POINT
  5
200A1
  8
Flurstuecke
100
AcDbEntity
100
AcDbPoint
 10
321699.350083425
 20
5675124.99293179
  0
POINT
  5
200A2
  8
Flurstuecke
100
AcDbEntity
100
AcDbPoint
 10
321769.9097731
 20
5675116.01475928
  0
POINT
  5
200A3
  8
Flurstuecke
100
AcDbEntity
100
AcDbPoint
 10
321675.750477038
 20
5675095.63890673
  0
POINT
  5
200A4
  8
Flurstuecke
100
AcDbEntity
100
AcDbPoint
 10
321686.197961766
 20
5675102.46751678
  0
POINT
  5
200A5
  8
Flurstuecke
100
AcDbEntity
100
AcDbPoint
 10
321756.056754676
 20
5675119.98395136
  0
POINT
  5
200A6
  8
Flurstuecke
100
AcDbEntity
100
AcDbPoint
 10
321652.794046507
 20
5675082.12165813
  0
POINT
  5
200A7
  8
Flurstuecke
100
AcDbEntity
100
AcDbPoint
 10
321661.666574974
 20
5675092.96945009
  0
POINT
  5
200A8
  8
Flurstuecke
100
AcDbEntity
100
AcDbPoint
 10
321635.799361405
 20
5675128.2422704
  0
POINT
  5
200A9
  8
Flurstuecke
100
AcDbEntity
100
AcDbPoint
 10
321795.579086406
 20
5675061.50585443
  0
POINT
  5
200AA
  8
Flurstuecke
100
AcDbEntity
100
AcDbPoint
 10
321762.917297134
 20
5675087.23061822
  0
POINT
  5
200AB
  8
Flurstuecke
100
AcDbEntity
100
AcDbPoint
 10
321751.909094993
 20
5675103.63727868
  0
POINT
  5
200AC
  8
Flurstuecke
100
AcDbEntity
100
AcDbPoint
 10
321811.097765378
 20
5675082.77152585
  0
POINT
  5
200AD
  8
Flurstuecke
100
AcDbEntity
100
AcDbPoint
 10
321692.811128895
 20
5675082.15165203
  0
POINT
  5
200AE
  8
Flurstuecke
100
AcDbEntity
100
AcDbPoint
 10
321720.772786916
 20
5675067.95454181
  0
POINT
  5
200AF
  8
Flurstuecke
100
AcDbEntity
100
AcDbPoint
 10
321731.32746762
 20
5675083.19144038
  0
POINT
  5
200B0
  8
Flurstuecke
100
AcDbEntity
100
AcDbPoint
 10
321712.78256379
 20
5675046.23896196
  0
POINT
  5
200B1
  8
Flurstuecke
100
AcDbEntity
100
AcDbPoint
 10
321709.377030094
 20
5675030.7421163
  0
POINT
  5
200B2
  8
Flurstuecke
100
AcDbEntity
100
AcDbPoint
 10
321680.557804265
 20
5675029.75231778
  0
POINT
  5
200B3
  8
Flurstuecke
100
AcDbEntity
100
AcDbPoint
 10
321686.39586203
 20
5675033.84148544
  0
POINT
  5
200B4
  8
Flurstuecke
100
AcDbEntity
100
AcDbPoint
 10
321720.987178868
 20
5675059.97616579
  0
POINT
  5
200B5
  8
Flurstuecke
100
AcDbEntity
100
AcDbPoint
 10
321709.269834118
 20
5675042.55971086
  0
POINT
  5
200B6
  8
Flurstuecke
100
AcDbEntity
100
AcDbPoint
 10
321703.670905838
 20
5675024.73333938
  0
ENDSEC
  0
SECTION
  2
OBJECTS
  0
DICTIONARY
  5
C
330
0
100
AcDbDictionary
281
     1
  3
ACAD_GROUP
350
D
  3
ACAD_LAYOUT
350
1A
  3
ACAD_MLEADERSTYLE
350
43
  3
ACAD_MLINESTYLE
350
17
  3
ACAD_PLOTSETTINGS
350
19
  3
ACAD_PLOTSTYLENAME
350
E
  3
ACAD_TABLESTYLE
350
42
  3
ACAD_VISUALSTYLE
350
2A
  0
DICTIONARY
  5
D
102
{ACAD_REACTORS
330
C
102
}
330
C
100
AcDbDictionary
281
     1
  0
DICTIONARY
  5
1A
102
{ACAD_REACTORS
330
C
102
}
330
C
100
AcDbDictionary
281
     1
  3
Layout1
350
1E
  3
Layout2
350
26
  3
Model
350
22
  0
DICTIONARY
  5
43
102
{ACAD_REACTORS
330
C
102
}
330
C
100
AcDbDictionary
281
     1
  0
DICTIONARY
  5
17
102
{ACAD_REACTORS
330
C
102
}
330
C
100
AcDbDictionary
281
     1
  3
Standard
350
18
  0
DICTIONARY
  5
19
102
{ACAD_REACTORS
330
C
102
}
330
C
100
AcDbDictionary
281
     1
  0
ACDBDICTIONARYWDFLT
  5
E
102
{ACAD_REACTORS
330
C
102
}
330
C
100
AcDbDictionary
281
     1
  3
Normal
350
F
100
AcDbDictionaryWithDefault
340
F
  0
DICTIONARY
  5
42
102
{ACAD_REACTORS
330
C
102
}
330
C
100
AcDbDictionary
281
     1
  0
DICTIONARY
  5
2A
102
{ACAD_REACTORS
330
C
102
}
330
C
100
AcDbDictionary
281
     1
  3
2dWireframe
350
2F
  3
3D Hidden
350
31
  3
3dWireframe
350
30
  3
Basic
350
32
  3
Brighten
350
36
  3
ColorChange
350
3A
  3
Conceptual
350
34
  3
Dim
350
35
  3
Facepattern
350
39
  3
Flat
350
2B
  3
FlatWithEdges
350
2C
  3
Gouraud
350
2D
  3
GouraudWithEdges
350
2E
  3
Linepattern
350
38
  3
Realistic
350
33
  3
Thicken
350
37
  0
LAYOUT
  5
1E
102
{ACAD_REACTORS
330
1A
102
}
330
1A
100
AcDbPlotSettings
  1

  2
none_device
  4

  6

 40
0.0
 41
0.0
 42
0.0
 43
0.0
 44
0.0
 45
0.0
 46
0.0
 47
0.0
 48
0.0
 49
0.0
140
0.0
141
0.0
142
1.0
143
1.0
 70
   688
 72
     0
 73
     0
 74
     5
  7

 75
    16
 76
     0
 77
     2
 78
   300
147
1.0
148
0.0
149
0.0
100
AcDbLayout
  1
Layout1
 70
     1
 71
     1
 10
0.0
 20
0.0
 11
12.0
 21
9.0
 12
0.0
 22
0.0
 32
0.0
 14
1.000000000000000E+20
 24
1.000000000000000E+20
 34
1.000000000000000E+20
 15
-1.000000000000000E+20
 25
-1.000000000000000E+20
 35
-1.000000000000000E+20
146
0.0
 13
0.0
 23
0.0
 33
0.0
 16
1.0
 26
0.0
 36
0.0
 17
0.0
 27
1.0
 37
0.0
 76
     0
330
1B
  0
LAYOUT
  5
26
102
{ACAD_REACTORS
330
1A
102
}
330
1A
100
AcDbPlotSettings
  1

  2
none_device
  4

  6

 40
0.0
 41
0.0
 42
0.0
 43
0.0
 44
0.0
 45
0.0
 46
0.0
 47
0.0
 48
0.0
 49
0.0
140
0.0
141
0.0
142
1.0
143
1.0
 70
   688
 72
     0
 73
     0
 74
     5
  7

 75
    16
 76
     0
 77
     2
 78
   300
147
1.0
148
0.0
149
0.0
100
AcDbLayout
  1
Layout2
 70
     1
 71
     2
 10
0.0
 20
0.0
 11
0.0
 21
0.0
 12
0.0
 22
0.0
 32
0.0
 14
0.0
 24
0.0
 34
0.0
 15
0.0
 25
0.0
 35
0.0
146
0.0
 13
0.0
 23
0.0
 33
0.0
 16
1.0
 26
0.0
 36
0.0
 17
0.0
 27
1.0
 37
0.0
 76
     0
330
23
  0
LAYOUT
  5
22
102
{ACAD_REACTORS
330
1A
102
}
330
1A
100
AcDbPlotSettings
  1

  2
none_device
  4

  6

 40
0.0
 41
0.0
 42
0.0
 43
0.0
 44
0.0
 45
0.0
 46
0.0
 47
0.0
 48
0.0
 49
0.0
140
0.0
141
0.0
142
1.0
143
1.0
 70
  1712
 72
     0
 73
     0
 74
     0
  7

 75
     0
 76
     0
 77
     2
 78
   300
147
1.0
148
0.0
149
0.0
100
AcDbLayout
  1
Model
 70
     1
 71
     0
 10
0.0
 20
0.0
 11
12.0
 21
9.0
 12
0.0
 22
0.0
 32
0.0
 14
30.0
 24
49.75
 34
0.0
 15
130.5
 25
163.1318914119703
 35
0.0
146
0.0
 13
0.0
 23
0.0
 33
0.0
 16
1.0
 26
0.0
 36
0.0
 17
0.0
 27
1.0
 37
0.0
 76
     0
330
1F
331
29
  0
MLINESTYLE
  5
18
102
{ACAD_REACTORS
330
17
102
}
330
17
100
AcDbMlineStyle
  2
Standard
 70
     0
  3

 62
   256
 51
90.0
 52
90.0
 71
     2
 49
0.5
 62
   256
  6
BYLAYER
 49
-0.5
 62
   256
  6
BYLAYER
  0
ACDBPLACEHOLDER
  5
F
102
{ACAD_REACTORS
330
E
102
}
330
E
  0
VISUALSTYLE
  5
2F
102
{ACAD_REACTORS
330
2A
102
}
330
2A
100
AcDbVisualStyle
  2
2dWireframe
 70
     4
 71
     0
 72
     2
 73
     0
 90
        0
 40
-0.6
 41
-30.0
 62
     5
 63
     7
421
 16777215
 74
     1
 91
        4
 64
     7
 65
   257
 75
     1
175
     1
 42
1.0
 92
        0
 66
   257
 43
1.0
 76
     1
 77
     6
 78
     2
 67
     7
 79
     5
170
     0
171
     0
290
     0
174
     0
 93
        1
 44
0.0
173
     0
291
     0
 45
0.0
1001
ACAD
1000
AcDbSavedByObjectVersion
1070
     0
  0
VISUALSTYLE
  5
31
102
{ACAD_REACTORS
330
2A
102
}
330
2A
100
AcDbVisualStyle
  2
3D Hidden
 70
     6
 71
     1
 72
     2
 73
     2
 90
        0
 40
-0.6
 41
-30.0
 62
     5
 63
     7
421
 16777215
 74
     2
 91
        2
 64
     7
 65
   257
 75
     2
175
     1
 42
40.0
 92
        0
 66
   257
 43
1.0
 76
     1
 77
     6
 78
     2
 67
     7
 79
     3
170
     0
171
     0
290
     0
174
     0
 93
        1
 44
0.0
173
     0
291
     0
 45
0.0
1001
ACAD
1000
AcDbSavedByObjectVersion
1070
     0
  0
VISUALSTYLE
  5
30
102
{ACAD_REACTORS
330
2A
102
}
330
2A
100
AcDbVisualStyle
  2
3dWireframe
 70
     5
 71
     0
 72
     2
 73
     0
 90
        0
 40
-0.6
 41
-30.0
 62
     5
 63
     7
421
 16777215
 74
     1
 91
        4
 64
     7
 65
   257
 75
     1
175
     1
 42
1.0
 92
        0
 66
   257
 43
1.0
 76
     1
 77
     6
 78
     2
 67
     7
 79
     5
170
     0
171
     0
290
     0
174
     0
 93
        1
 44
0.0
173
     0
291
     0
 45
0.0
1001
ACAD
1000
AcDbSavedByObjectVersion
1070
     0
  0
VISUALSTYLE
  5
32
102
{ACAD_REACTORS
330
2A
102
}
330
2A
100
AcDbVisualStyle
  2
Basic
 70
     7
 71
     1
 72
     0
 73
     1
 90
        0
 40
-0.6
 41
-30.0
 62
     5
 63
     7
421
 16777215
 74
     0
 91
        4
 64
     7
 65
   257
 75
     1
175
     1
 42
1.0
 92
        8
 66
     7
 43
1.0
 76
     1
 77
     6
 78
     2
 67
     7
 79
     5
170
     0
171
     0
290
     0
174
     0
 93
        1
 44
0.0
173
     0
291
     1
 45
0.0
1001
ACAD
1000
AcDbSavedByObjectVersion
1070
     0
  0
VISUALSTYLE
  5
36
102
{ACAD_REACTORS
330
2A
102
}
330
2A
100
AcDbVisualStyle
  2
Brighten
 70
    12
 71
     2
 72
     2
 73
     0
 90
        0
 40
-0.6
 41
-30.0
 62
     5
 63
     7
421
 16777215
 74
     1
 91
        4
 64
     7
 65
   257
 75
     1
175
     1
 42
1.0
 92
        8
 66
     7
 43
1.0
 76
     1
 77
     6
 78
     2
 67
     7
 79
     5
170
     0
171
     0
290
     0
174
     0
 93
        1
 44
50.0
173
     0
291
     1
 45
0.0
1001
ACAD
1000
AcDbSavedByObjectVersion
1070
     0
  0
VISUALSTYLE
  5
3A
102
{ACAD_REACTORS
330
2A
102
}
330
2A
100
AcDbVisualStyle
  2
ColorChange
 70
    16
 71
     2
 72
     2
 73
     3
 90
        0
 40
-0.6
 41
-30.0
 62
     5
 63
     8
421
  8421504
 74
     1
 91
        4
 64
     7
 65
   257
 75
     1
175
     1
 42
1.0
 92
        8
 66
     8
424
  8421504
 43
1.0
 76
     1
 77
     6
 78
     2
 67
     7
 79
     5
170
     0
171
     0
290
     0
174
     0
 93
        1
 44
0.0
173
     0
291
     1
 45
0.0
1001
ACAD
1000
AcDbSavedByObjectVersion
1070
     0
  0
VISUALSTYLE
  5
34
102
{ACAD_REACTORS
330
2A
102
}
330
2A
100
AcDbVisualStyle
  2
Conceptual
 70
     9
 71
     3
 72
     2
 73
     0
 90
        0
 40
-0.6
 41
-30.0
 62
     5
 63
     7
421
 16777215
 74
     2
 91
        2
 64
     7
 65
   257
 75
     1
175
     1
 42
40.0
 92
        8
 66
     7
 43
1.0
 76
     1
 77
     6
 78
     2
 67
     7
 79
     3
170
     0
171
     0
290
     0
174
     0
 93
        1
 44
0.0
173
     0
291
     0
 45
0.0
1001
ACAD
1000
AcDbSavedByObjectVersion
1070
     0
  0
VISUALSTYLE
  5
35
102
{ACAD_REACTORS
330
2A
102
}
330
2A
100
AcDbVisualStyle
  2
Dim
 70
    11
 71
     2
 72
     2
 73
     0
 90
        0
 40
-0.6
 41
-30.0
 62
     5
 63
     7
421
 16777215
 74
     1
 91
        4
 64
     7
 65
   257
 75
     1
175
     1
 42
1.0
 92
        8
 66
     7
 43
1.0
 76
     1
 77
     6
 78
     2
 67
     7
 79
     5
170
     0
171
     0
290
     0
174
     0
 93
        1
 44
-50.0
173
     0
291
     1
 45
0.0
1001
ACAD
1000
AcDbSavedByObjectVersion
1070
     0
  0
VISUALSTYLE
  5
39
102
{ACAD_REACTORS
330
2A
102
}
330
2A
100
AcDbVisualStyle
  2
Facepattern
 70
    15
 71
     2
 72
     2
 73
     0
 90
        0
 40
-0.6
 41
-30.0
 62
     5
 63
     7
421
 16777215
 74
     1
 91
        4
 64
     7
 65
   257
 75
     1
175
     1
 42
1.0
 92
        8
 66
     7
 43
1.0
 76
     1
 77
     6
 78
     2
 67
     7
 79
     5
170
     0
171
     0
290
     0
174
     0
 93
        1
 44
0.0
173
     0
291
     1
 45
0.0
1001
ACAD
1000
AcDbSavedByObjectVersion
1070
     0
  0
VISUALSTYLE
  5
2B
102
{ACAD_REACTORS
330
2A
102
}
330
2A
100
AcDbVisualStyle
  2
Flat
 70
     0
 71
     2
 72
     1
 73
     1
 90
        2
 40
-0.6
 41
30.0
 62
     5
 63
     7
421
 16777215
 74
     0
 91
        4
 64
     7
 65
   257
 75
     1
175
     1
 42
1.0
 92
        8
 66
     7
 43
1.0
 76
     1
 77
     6
 78
     2
 67
     7
 79
     5
170
     0
171
     0
290
     0
174
     0
 93
       13
 44
0.0
173
     0
291
     1
 45
0.0
1001
ACAD
1000
AcDbSavedByObjectVersion
1070
     0
  0
VISUALSTYLE
  5
2C
102
{ACAD_REACTORS
330
2A
102
}
330
2A
100
AcDbVisualStyle
  2
FlatWithEdges
 70
     1
 71
     2
 72
     1
 73
     1
 90
        2
 40
-0.6
 41
30.0
 62
     5
 63
     7
421
 16777215
 74
     1
 91
        4
 64
     7
 65
   257
 75
     1
175
     1
 42
1.0
 92
        0
 66
   257
 43
1.0
 76
     1
 77
     6
 78
     2
 67
     7
 79
     5
170
     0
171
     0
290
     0
174
     0
 93
       13
 44
0.0
173
     0
291
     1
 45
0.0
1001
ACAD
1000
AcDbSavedByObjectVersion
1070
     0
  0
VISUALSTYLE
  5
2D
102
{ACAD_REACTORS
330
2A
102
}
330
2A
100
AcDbVisualStyle
  2
Gouraud
 70
     2
 71
     2
 72
     2
 73
     1
 90
        2
 40
-0.6
 41
30.0
 62
     5
 63
     7
421
 16777215
 74
     0
 91
        4
 64
     7
 65
   257
 75
     1
175
     1
 42
1.0
 92
        0
 66
     7
 43
1.0
 76
     1
 77
     6
 78
     2
 67
     7
 79
     5
170
     0
171
     0
290
     0
174
     0
 93
       13
 44
0.0
173
     0
291
     1
 45
0.0
1001
ACAD
1000
AcDbSavedByObjectVersion
1070
     0
  0
VISUALSTYLE
  5
2E
102
{ACAD_REACTORS
330
2A
102
}
330
2A
100
AcDbVisualStyle
  2
GouraudWithEdges
 70
     3
 71
     2
 72
     2
 73
     1
 90
        2
 40
-0.6
 41
30.0
 62
     5
 63
     7
421
 16777215
 74
     1
 91
        4
 64
     7
 65
   257
 75
     1
175
     1
 42
1.0
 92
        0
 66
   257
 43
1.0
 76
     1
 77
     6
 78
     2
 67
     7
 79
     5
170
     0
171
     0
290
     0
174
     0
 93
       13
 44
0.0
173
     0
291
     1
 45
0.0
1001
ACAD
1000
AcDbSavedByObjectVersion
1070
     0
  0
VISUALSTYLE
  5
38
102
{ACAD_REACTORS
330
2A
102
}
330
2A
100
AcDbVisualStyle
  2
Linepattern
 70
    14
 71
     2
 72
     2
 73
     0
 90
        0
 40
-0.6
 41
-30.0
 62
     5
 63
     7
421
 16777215
 74
     1
 91
        4
 64
     7
 65
   257
 75
     7
175
     7
 42
1.0
 92
        8
 66
     7
 43
1.0
 76
     1
 77
     6
 78
     2
 67
     7
 79
     5
170
     0
171
     0
290
     0
174
     0
 93
        1
 44
0.0
173
     0
291
     1
 45
0.0
1001
ACAD
1000
AcDbSavedByObjectVersion
1070
     0
  0
VISUALSTYLE
  5
33
102
{ACAD_REACTORS
330
2A
102
}
330
2A
100
AcDbVisualStyle
  2
Realistic
 70
     8
 71
     2
 72
     2
 73
     0
 90
        0
 40
-0.6
 41
-30.0
 62
     5
 63
     7
421
 16777215
 74
     1
 91
        0
 64
     7
 65
   257
 75
     1
175
     1
 42
1.0
 92
        8
 66
     8
424
  7895160
 43
1.0
 76
     1
 77
     6
 78
     2
 67
     7
 79
     5
170
     0
171
     0
290
     0
174
     0
 93
       13
 44
0.0
173
     0
291
     0
 45
0.0
1001
ACAD
1000
AcDbSavedByObjectVersion
1070
     0
  0
VISUALSTYLE
  5
37
102
{ACAD_REACTORS
330
2A
102
}
330
2A
100
AcDbVisualStyle
  2
Thicken
 70
    13
 71
     2
 72
     2
 73
     0
 90
        0
 40
-0.6
 41
-30.0
 62
     5
 63
     7
421
 16777215
 74
     1
 91
        4
 64
     7
 65
   257
 75
     1
175
     1
 42
1.0
 92
       12
 66
     7
 43
1.0
 76
     1
 77
     6
 78
     2
 67
     7
 79
     5
170
     0
171
     0
290
     0
174
     0
 93
        1
 44
0.0
173
     0
291
     1
 45
0.0
1001
ACAD
1000
AcDbSavedByObjectVersion
1070
     0
  0
ENDSEC
  0
EOF
