  0
SECTION
  2
HEADER
  9
$ACADVER
  1
AC1018
  9
$ACADMAINTVER
 70
     0
  9
$DWGCODEPAGE
  3
ANSI_1252
  9
$INSBASE
 10
0.0
 20
0.0
 30
0.0
  9
$EXTMIN
 10
319854.466195258
 20
5674793.00229592
 30
0.0
  9
$EXTMAX
 10
320058.427708139
 20
5674941.91198578
 30
0.0
  9
$LIMMIN
 10
0.0
 20
0.0
  9
$LIMMAX
 10
12.0
 20
9.0
  9
$ORTHOMODE
 70
     0
  9
$REGENMODE
 70
     1
  9
$FILLMODE
 70
     1
  9
$QTEXTMODE
 70
     0
  9
$MIRRTEXT
 70
     1
  9
$LTSCALE
 40
1.0
  9
$ATTMODE
 70
     1
  9
$TEXTSIZE
 40
0.2
  9
$TRACEWID
 40
0.05
  9
$TEXTSTYLE
  7
Standard
  9
$CLAYER
  8
0
  9
$CELTYPE
  6
ByLayer
  9
$CECOLOR
 62
   256
  9
$CELTSCALE
 40
1.0
  9
$DISPSILH
 70
     0
  9
$DIMSCALE
 40
1.0
  9
$DIMASZ
 40
0.18
  9
$DIMEXO
 40
0.0625
  9
$DIMDLI
 40
0.38
  9
$DIMRND
 40
0.0
  9
$DIMDLE
 40
0.0
  9
$DIMEXE
 40
0.18
  9
$DIMTP
 40
0.0
  9
$DIMTM
 40
0.0
  9
$DIMTXT
 40
0.18
  9
$DIMCEN
 40
0.09
  9
$DIMTSZ
 40
0.0
  9
$DIMTOL
 70
     0
  9
$DIMLIM
 70
     0
  9
$DIMTIH
 70
     1
  9
$DIMTOH
 70
     1
  9
$DIMSE1
 70
     0
  9
$DIMSE2
 70
     0
  9
$DIMTAD
 70
     0
  9
$DIMZIN
 70
     0
  9
$DIMBLK
  1

  9
$DIMASO
 70
     1
  9
$DIMSHO
 70
     1
  9
$DIMPOST
  1

  9
$DIMAPOST
  1

  9
$DIMALT
 70
     0
  9
$DIMALTD
 70
     2
  9
$DIMALTF
 40
25.4
  9
$DIMLFAC
 40
1.0
  9
$DIMTOFL
 70
     0
  9
$DIMTVP
 40
0.0
  9
$DIMTIX
 70
     0
  9
$DIMSOXD
 70
     0
  9
$DIMSAH
 70
     0
  9
$DIMBLK1
  1

  9
$DIMBLK2
  1

  9
$DIMSTYLE
  2
Standard
  9
$DIMCLRD
 70
     0
  9
$DIMCLRE
 70
     0
  9
$DIMCLRT
 70
     0
  9
$DIMTFAC
 40
1.0
  9
$DIMGAP
 40
0.09
  9
$DIMJUST
 70
     0
  9
$DIMSD1
 70
     0
  9
$DIMSD2
 70
     0
  9
$DIMTOLJ
 70
     1
  9
$DIMTZIN
 70
     0
  9
$DIMALTZ
 70
     0
  9
$DIMALTTZ
 70
     0
  9
$DIMUPT
 70
     0
  9
$DIMDEC
 70
     4
  9
$DIMTDEC
 70
     4
  9
$DIMALTU
 70
     2
  9
$DIMALTTD
 70
     2
  9
$DIMTXSTY
  7
Standard
  9
$DIMAUNIT
 70
     0
  9
$DIMADEC
 70
     0
  9
$DIMALTRND
 40
0.0
  9
$DIMAZIN
 70
     0
  9
$DIMDSEP
 70
    46
  9
$DIMATFIT
 70
     3
  9
$DIMFRAC
 70
     0
  9
$DIMLDRBLK
  1

  9
$DIMLUNIT
 70
     2
  9
$DIMLWD
 70
    -2
  9
$DIMLWE
 70
    -2
  9
$DIMTMOVE
 70
     0
  9
$LUNITS
 70
     2
  9
$LUPREC
 70
     4
  9
$SKETCHINC
 40
0.1
  9
$FILLETRAD
 40
0.5
  9
$AUNITS
 70
     0
  9
$AUPREC
 70
     0
  9
$MENU
  1
.
  9
$ELEVATION
 40
0.0
  9
$PELEVATION
 40
0.0
  9
$THICKNESS
 40
0.0
  9
$LIMCHECK
 70
     0
  9
$CHAMFERA
 40
0.5
  9
$CHAMFERB
 40
0.5
  9
$CHAMFERC
 40
1.0
  9
$CHAMFERD
 40
0.0
  9
$SKPOLY
 70
     0
  9
$TDCREATE
 40
2455343.56230316
  9
$TDUCREATE
 40
2455343.728969826
  9
$TDUPDATE
 40
2455343.562303171
  9
$TDUUPDATE
 40
2455343.728969838
  9
$TDINDWG
 40
0.0000000116
  9
$TDUSRTIMER
 40
0.0000000116
  9
$USRTIMER
 70
     1
  9
$ANGBASE
 50
0.0
  9
$ANGDIR
 70
     0
  9
$PDMODE
 70
     0
  9
$PDSIZE
 40
0.0
  9
$PLINEWID
 40
0.0
  9
$SPLFRAME
 70
     0
  9
$SPLINETYPE
 70
     6
  9
$SPLINESEGS
 70
     8
  9
$HANDSEED
  5
00020361
  9
$SURFTAB1
 70
     6
  9
$SURFTAB2
 70
     6
  9
$SURFTYPE
 70
     6
  9
$SURFU
 70
     6
  9
$SURFV
 70
     6
  9
$UCSBASE
  2

  9
$UCSNAME
  2

  9
$UCSORG
 10
0.0
 20
0.0
 30
0.0
  9
$UCSXDIR
 10
1.0
 20
0.0
 30
0.0
  9
$UCSYDIR
 10
0.0
 20
1.0
 30
0.0
  9
$UCSORTHOREF
  2

  9
$UCSORTHOVIEW
 70
     0
  9
$UCSORGTOP
 10
0.0
 20
0.0
 30
0.0
  9
$UCSORGBOTTOM
 10
0.0
 20
0.0
 30
0.0
  9
$UCSORGLEFT
 10
0.0
 20
0.0
 30
0.0
  9
$UCSORGRIGHT
 10
0.0
 20
0.0
 30
0.0
  9
$UCSORGFRONT
 10
0.0
 20
0.0
 30
0.0
  9
$UCSORGBACK
 10
0.0
 20
0.0
 30
0.0
  9
$PUCSBASE
  2

  9
$PUCSNAME
  2

  9
$PUCSORG
 10
0.0
 20
0.0
 30
0.0
  9
$PUCSXDIR
 10
1.0
 20
0.0
 30
0.0
  9
$PUCSYDIR
 10
0.0
 20
1.0
 30
0.0
  9
$PUCSORTHOREF
  2

  9
$PUCSORTHOVIEW
 70
     0
  9
$PUCSORGTOP
 10
0.0
 20
0.0
 30
0.0
  9
$PUCSORGBOTTOM
 10
0.0
 20
0.0
 30
0.0
  9
$PUCSORGLEFT
 10
0.0
 20
0.0
 30
0.0
  9
$PUCSORGRIGHT
 10
0.0
 20
0.0
 30
0.0
  9
$PUCSORGFRONT
 10
0.0
 20
0.0
 30
0.0
  9
$PUCSORGBACK
 10
0.0
 20
0.0
 30
0.0
  9
$USERI1
 70
     0
  9
$USERI2
 70
     0
  9
$USERI3
 70
     0
  9
$USERI4
 70
     0
  9
$USERI5
 70
     0
  9
$USERR1
 40
0.0
  9
$USERR2
 40
0.0
  9
$USERR3
 40
0.0
  9
$USERR4
 40
0.0
  9
$USERR5
 40
0.0
  9
$WORLDVIEW
 70
     1
  9
$SHADEDGE
 70
     3
  9
$SHADEDIF
 70
    70
  9
$TILEMODE
 70
     1
  9
$MAXACTVP
 70
    64
  9
$PINSBASE
 10
0.0
 20
0.0
 30
0.0
  9
$PLIMCHECK
 70
     0
  9
$PEXTMIN
 10
1.000000000000000E+20
 20
1.000000000000000E+20
 30
1.000000000000000E+20
  9
$PEXTMAX
 10
-1.000000000000000E+20
 20
-1.000000000000000E+20
 30
-1.000000000000000E+20
  9
$PLIMMIN
 10
0.0
 20
0.0
  9
$PLIMMAX
 10
12.0
 20
9.0
  9
$UNITMODE
 70
     0
  9
$VISRETAIN
 70
     1
  9
$PLINEGEN
 70
     0
  9
$PSLTSCALE
 70
     1
  9
$TREEDEPTH
 70
  3020
  9
$CMLSTYLE
  2
Standard
  9
$CMLJUST
 70
     0
  9
$CMLSCALE
 40
1.0
  9
$PROXYGRAPHICS
 70
     1
  9
$MEASUREMENT
 70
     0
  9
$CELWEIGHT
370
    -1
  9
$ENDCAPS
280
     0
  9
$JOINSTYLE
280
     0
  9
$LWDISPLAY
290
     0
  9
$INSUNITS
 70
     1
  9
$HYPERLINKBASE
  1

  9
$STYLESHEET
  1

  9
$XEDIT
290
     1
  9
$CEPSNTYPE
380
     0
  9
$PSTYLEMODE
290
     1
  9
$FINGERPRINTGUID
  2
{E7F7769E-AACA-40AB-9EF3-61BBAFBCBA26}
  9
$VERSIONGUID
  2
{FAEB1C32-E019-11D5-929B-00C0DF256EC4}
  9
$EXTNAMES
290
     1
  9
$PSVPSCALE
 40
0.0
  9
$OLESTARTUP
290
     0
  9
$SORTENTS
280
   127
  9
$INDEXCTL
280
     0
  9
$HIDETEXT
280
     1
  9
$XCLIPFRAME
290
     0
  9
$HALOGAP
280
     0
  9
$OBSCOLOR
 70
   257
  9
$OBSLTYPE
280
     0
  9
$INTERSECTIONDISPLAY
280
     0
  9
$INTERSECTIONCOLOR
 70
   257
  9
$DIMASSOC
280
     2
  9
$PROJECTNAME
  1

  0
ENDSEC
  0
SECTION
  2
CLASSES
  0
CLASS
  1
ACDBDICTIONARYWDFLT
  2
AcDbDictionaryWithDefault
  3
ObjectDBX Classes
 90
        0
 91
        4
280
     0
281
     0
  0
CLASS
  1
VISUALSTYLE
  2
AcDbVisualStyle
  3
ObjectDBX Classes
 90
     4095
 91
        4
280
     0
281
     0
  0
ENDSEC
  0
SECTION
  2
TABLES
  0
TABLE
  2
VPORT
  5
8
330
0
100
AcDbSymbolTable
 70
     1
  0
VPORT
  5
29
330
8
100
AcDbSymbolTableRecord
100
AcDbViewportTableRecord
  2
*Active
 70
     0
 10
0.0
 20
0.0
 11
1.0
 21
1.0
 12
80.25
 22
106.4409457059851
 13
0.0
 23
0.0
 14
0.5
 24
0.5
 15
0.5
 25
0.5
 16
0.0
 26
0.0
 36
1.0
 17
0.0
 27
0.0
 37
0.0
 40
113.3818914119703
 41
0.8863849310366128
 42
50.0
 43
0.0
 44
0.0
 50
0.0
 51
0.0
 71
     0
 72
  1000
 73
     1
 74
     3
 75
     0
 76
     0
 77
     0
 78
     0
281
     0
 65
     1
110
0.0
120
0.0
130
0.0
111
1.0
121
0.0
131
0.0
112
0.0
122
1.0
132
0.0
 79
     0
146
0.0
  0
ENDTAB
  0
TABLE
  2
LTYPE
  5
5
330
0
100
AcDbSymbolTable
 70
     1
  0
LTYPE
  5
14
330
5
100
AcDbSymbolTableRecord
100
AcDbLinetypeTableRecord
  2
ByBlock
 70
     0
  3

 72
    65
 73
     0
 40
0.0
  0
LTYPE
  5
15
330
5
100
AcDbSymbolTableRecord
100
AcDbLinetypeTableRecord
  2
ByLayer
 70
     0
  3

 72
    65
 73
     0
 40
0.0
  0
LTYPE
  5
16
330
5
100
AcDbSymbolTableRecord
100
AcDbLinetypeTableRecord
  2
Continuous
 70
     0
  3
Solid line
 72
    65
 73
     0
 40
0.0
  0
ENDTAB
  0
TABLE
  2
LAYER
  5
2
330
0
100
AcDbSymbolTable
 70
     1
  0
LAYER
  5
10
330
2
100
AcDbSymbolTableRecord
100
AcDbLayerTableRecord
  2
0
 70
     0
 62
     7
  6
Continuous
370
    -3
390
F
  0
LAYER
  5
2034D
330
2
100
AcDbSymbolTableRecord
100
AcDbLayerTableRecord
  2
Flurstuecke_Nummern
 70
     0
 62
     7
  6
Continuous
370
    -3
390
F
  0
LAYER
  5
2034E
330
2
100
AcDbSymbolTableRecord
100
AcDbLayerTableRecord
  2
Gebaeude_Hausnummern
 70
     0
 62
     7
  6
Continuous
370
    -3
390
F
  0
LAYER
  5
2034F
330
2
100
AcDbSymbolTableRecord
100
AcDbLayerTableRecord
  2
Lagebezeichnungen
 70
     0
 62
     7
  6
Continuous
370
    -3
390
F
  0
LAYER
  5
20350
330
2
100
AcDbSymbolTableRecord
100
AcDbLayerTableRecord
  2
Flurstuecke_Flaechen
 70
     0
 62
     7
  6
Continuous
370
    -3
390
F
  0
LAYER
  5
20351
330
2
100
AcDbSymbolTableRecord
100
AcDbLayerTableRecord
  2
Ueberdachungen
 70
     0
 62
     7
  6
Continuous
370
    -3
390
F
  0
LAYER
  5
20352
330
2
100
AcDbSymbolTableRecord
100
AcDbLayerTableRecord
  2
Gebaeude_Flaechen
 70
     0
 62
     7
  6
Continuous
370
    -3
390
F
  0
LAYER
  5
20353
330
2
100
AcDbSymbolTableRecord
100
AcDbLayerTableRecord
  2
Gebaeude_Flaechen_DES_4300
 70
     0
 62
     7
  6
Continuous
370
    -3
390
F
  0
LAYER
  5
20354
330
2
100
AcDbSymbolTableRecord
100
AcDbLayerTableRecord
  2
BP_Umringe_Beschriftung
 70
     0
 62
     7
  6
Continuous
370
    -3
390
F
  0
LAYER
  5
20355
330
2
100
AcDbSymbolTableRecord
100
AcDbLayerTableRecord
  2
BP_Aenderungen
 70
     0
 62
     7
  6
Continuous
370
    -3
390
F
  0
LAYER
  5
20356
330
2
100
AcDbSymbolTableRecord
100
AcDbLayerTableRecord
  2
BP_Umringe
 70
     0
 62
     7
  6
Continuous
370
    -3
390
F
  0
LAYER
  5
20357
330
2
100
AcDbSymbolTableRecord
100
AcDbLayerTableRecord
  2
Strassenbasisdaten_L
 70
     0
 62
     7
  6
Continuous
370
    -3
390
F
  0
LAYER
  5
20358
330
2
100
AcDbSymbolTableRecord
100
AcDbLayerTableRecord
  2
Eigentuemer
 70
     0
 62
     7
  6
Continuous
370
    -3
390
F
  0
LAYER
  5
20359
330
2
100
AcDbSymbolTableRecord
100
AcDbLayerTableRecord
  2
Eigentuemer_Stadt
 70
     0
 62
     7
  6
Continuous
370
    -3
390
F
  0
LAYER
  5
2035A
330
2
100
AcDbSymbolTableRecord
100
AcDbLayerTableRecord
  2
FNP_Aend_Anp
 70
     0
 62
     7
  6
Continuous
370
    -3
390
F
  0
LAYER
  5
2035B
330
2
100
AcDbSymbolTableRecord
100
AcDbLayerTableRecord
  2
FNP_Ausgestaltung_F
 70
     0
 62
     7
  6
Continuous
370
    -3
390
F
  0
LAYER
  5
2035C
330
2
100
AcDbSymbolTableRecord
100
AcDbLayerTableRecord
  2
FNP_Bodennutzung
 70
     0
 62
     7
  6
Continuous
370
    -3
390
F
  0
LAYER
  5
2035D
330
2
100
AcDbSymbolTableRecord
100
AcDbLayerTableRecord
  2
LaSchVO_Symbole
 70
     0
 62
     7
  6
Continuous
370
    -3
390
F
  0
LAYER
  5
2035E
330
2
100
AcDbSymbolTableRecord
100
AcDbLayerTableRecord
  2
LaSchVO
 70
     0
 62
     7
  6
Continuous
370
    -3
390
F
  0
LAYER
  5
2035F
330
2
100
AcDbSymbolTableRecord
100
AcDbLayerTableRecord
  2
Adressen
 70
     0
 62
     7
  6
Continuous
370
    -3
390
F
  0
LAYER
  5
20360
330
2
100
AcDbSymbolTableRecord
100
AcDbLayerTableRecord
  2
Flurstuecke
 70
     0
 62
     7
  6
Continuous
370
    -3
390
F
  0
ENDTAB
  0
TABLE
  2
STYLE
  5
3
330
0
100
AcDbSymbolTable
 70
     1
  0
STYLE
  5
11
330
3
100
AcDbSymbolTableRecord
100
AcDbTextStyleTableRecord
  2
Standard
 70
     0
 40
0.0
 41
1.0
 50
0.0
 71
     0
 42
0.2
  3
txt
  4

  0
ENDTAB
  0
TABLE
  2
VIEW
  5
6
330
0
100
AcDbSymbolTable
 70
     0
  0
ENDTAB
  0
TABLE
  2
UCS
  5
7
330
0
100
AcDbSymbolTable
 70
     0
  0
ENDTAB
  0
TABLE
  2
APPID
  5
9
330
0
100
AcDbSymbolTable
 70
     1
  0
APPID
  5
12
330
9
100
AcDbSymbolTableRecord
100
AcDbRegAppTableRecord
  2
ACAD
 70
     0
  0
ENDTAB
  0
TABLE
  2
DIMSTYLE
  5
A
330
0
100
AcDbSymbolTable
 70
     1
100
AcDbDimStyleTable
  0
DIMSTYLE
105
27
330
A
100
AcDbSymbolTableRecord
100
AcDbDimStyleTableRecord
  2
Standard
 70
     0
340
11
  0
ENDTAB
  0
TABLE
  2
BLOCK_RECORD
  5
1
330
0
100
AcDbSymbolTable
 70
     1
  0
BLOCK_RECORD
  5
1F
330
1
100
AcDbSymbolTableRecord
100
AcDbBlockTableRecord
  2
*Model_Space
340
22
  0
BLOCK_RECORD
  5
1B
330
1
100
AcDbSymbolTableRecord
100
AcDbBlockTableRecord
  2
*Paper_Space
340
1E
  0
BLOCK_RECORD
  5
23
330
1
100
AcDbSymbolTableRecord
100
AcDbBlockTableRecord
  2
*Paper_Space0
340
26
  0
ENDTAB
  0
ENDSEC
  0
SECTION
  2
BLOCKS
  0
BLOCK
  5
20
330
1F
100
AcDbEntity
  8
0
100
AcDbBlockBegin
  2
*Model_Space
 70
     0
 10
0.0
 20
0.0
 30
0.0
  3
*Model_Space
  1

  0
ENDBLK
  5
21
330
1F
100
AcDbEntity
  8
0
100
AcDbBlockEnd
  0
BLOCK
  5
1C
330
1B
100
AcDbEntity
 67
     1
  8
0
100
AcDbBlockBegin
  2
*Paper_Space
 70
     0
 10
0.0
 20
0.0
 30
0.0
  3
*Paper_Space
  1

  0
ENDBLK
  5
1D
330
1B
100
AcDbEntity
 67
     1
  8
0
100
AcDbBlockEnd
  0
BLOCK
  5
24
330
23
100
AcDbEntity
  8
0
100
AcDbBlockBegin
  2
*Paper_Space0
 70
     0
 10
0.0
 20
0.0
 30
0.0
  3
*Paper_Space0
  1

  0
ENDBLK
  5
25
330
23
100
AcDbEntity
  8
0
100
AcDbBlockEnd
  0
ENDSEC
  0
SECTION
  2
ENTITIES
  0
MTEXT
  5
20000
  8
Flurstuecke_Nummern
100
AcDbEntity
100
AcDbMText
 62
7
 50
0
 40
1.214153
 71
7
  1
31
 10
320057.759240533
 20
5674927.14499156
  0
MTEXT
  5
20001
  8
Flurstuecke_Nummern
100
AcDbEntity
100
AcDbMText
 62
7
 50
360
 40
1.214153
 71
7
  1
113
 10
320020.059240412
 20
5674884.40369143
  0
MTEXT
  5
20002
  8
Flurstuecke_Nummern
100
AcDbEntity
100
AcDbMText
 62
7
 50
0
 40
1.214153
 71
7
  1
107
 10
320037.169367326
 20
5674865.74748885
  0
MTEXT
  5
20003
  8
Flurstuecke_Nummern
100
AcDbEntity
100
AcDbMText
 62
7
 50
0
 40
1.214153
 71
7
  1
114
 10
319998.892158104
 20
5674889.8325864
  0
MTEXT
  5
20004
  8
Flurstuecke_Nummern
100
AcDbEntity
100
AcDbMText
 62
7
 50
0
 40
1.214153
 71
7
  1
165
 10
320024.520242176
 20
5674912.80790983
  0
MTEXT
  5
20005
  8
Flurstuecke_Nummern
100
AcDbEntity
100
AcDbMText
 62
7
 50
0
 40
1.214153
 71
7
  1
145
 10
320026.58170325
 20
5674827.27531975
  0
MTEXT
  5
20006
  8
Flurstuecke_Nummern
100
AcDbEntity
100
AcDbMText
 62
7
 50
0
 40
1.214153
 71
7
  1
115
 10
319976.166611224
 20
5674895.96133891
  0
MTEXT
  5
20007
  8
Flurstuecke_Nummern
100
AcDbEntity
100
AcDbMText
 62
7
 50
0
 40
1.214153
 71
7
  1
131
 10
319924.753772038
 20
5674879.84461942
  0
MTEXT
  5
20008
  8
Flurstuecke_Nummern
100
AcDbEntity
100
AcDbMText
 62
7
 50
360
 40
1.214153
 71
7
  1
104
 10
320020.916808218
 20
5674844.5418052
  0
MTEXT
  5
20009
  8
Flurstuecke_Nummern
100
AcDbEntity
100
AcDbMText
 62
7
 50
0
 40
1.214153
 71
7
  1
158
 10
319885.973566314
 20
5674894.14170929
  0
MTEXT
  5
2000A
  8
Flurstuecke_Nummern
100
AcDbEntity
100
AcDbMText
 62
7
 50
360
 40
1.214153
 71
7
  1
118
 10
319941.946357395
 20
5674904.87952363
  0
MTEXT
  5
2000B
  8
Flurstuecke_Nummern
100
AcDbEntity
100
AcDbMText
 62
7
 50
0
 40
1.214153
 71
7
  1
106
 10
320033.714358566
 20
5674857.15923696
  0
MTEXT
  5
2000C
  8
Flurstuecke_Nummern
100
AcDbEntity
100
AcDbMText
 62
7
 50
0
 40
1.214153
 71
7
  1
116
 10
319954.422319815
 20
5674901.57019724
  0
MTEXT
  5
2000D
  8
Flurstuecke_Nummern
100
AcDbEntity
100
AcDbMText
 62
7
 50
0
 40
1.214153
 71
7
  1
122
 10
319908.38577111
 20
5674905.14946869
  0
MTEXT
  5
2000E
  8
Flurstuecke_Nummern
100
AcDbEntity
100
AcDbMText
 62
7
 50
0
 40
1.214153
 71
7
  1
126
 10
319894.128706322
 20
5674891.13232184
  0
MTEXT
  5
2000F
  8
Flurstuecke_Nummern
100
AcDbEntity
100
AcDbMText
 62
7
 50
0
 40
1.214153
 71
7
  1
105
 10
320023.712149435
 20
5674851.730342
  0
MTEXT
  5
20010
  8
Flurstuecke_Nummern
100
AcDbEntity
100
AcDbMText
 62
7
 50
0
 40
1.214153
 71
7
  1
103
 10
320048.71354934
 20
5674831.25450979
  0
MTEXT
  5
20011
  8
Flurstuecke_Nummern
100
AcDbEntity
100
AcDbMText
 62
7
 50
0
 40
1.214153
 71
7
  1
160
 10
319942.70497507
 20
5674794.24204357
  0
MTEXT
  5
20012
  8
Flurstuecke_Nummern
100
AcDbEntity
100
AcDbMText
 62
7
 50
360
 40
1.214153
 71
7
  1
5
 10
319885.981812158
 20
5674828.86499617
  0
MTEXT
  5
20013
  8
Flurstuecke_Nummern
100
AcDbEntity
100
AcDbMText
 62
7
 50
360
 40
1.214153
 71
7
  1
292
 10
319875.0065934
 20
5674833.74400306
  0
MTEXT
  5
20014
  8
Flurstuecke_Nummern
100
AcDbEntity
100
AcDbMText
 62
7
 50
0
 40
1.214153
 71
7
  1
319
 10
319898.408299512
 20
5674797.70133944
  0
MTEXT
  5
20015
  8
Flurstuecke_Nummern
100
AcDbEntity
100
AcDbMText
 62
7
 50
0
 40
1.214153
 71
7
  1
108
 10
320035.330544048
 20
5674880.42450138
  0
MTEXT
  5
20016
  8
Flurstuecke_Nummern
100
AcDbEntity
100
AcDbMText
 62
7
 50
0
 40
1.214153
 71
7
  1
207
 10
319988.642573644
 20
5674860.40857557
  0
MTEXT
  5
20017
  8
Flurstuecke_Nummern
100
AcDbEntity
100
AcDbMText
 62
7
 50
0
 40
1.214153
 71
7
  1
204
 10
319962.107446699
 20
5674860.93846771
  0
MTEXT
  5
20018
  8
Flurstuecke_Nummern
100
AcDbEntity
100
AcDbMText
 62
7
 50
360
 40
1.214153
 71
7
  1
194
 10
320033.425754016
 20
5674941.52206515
  0
MTEXT
  5
20019
  8
Flurstuecke_Nummern
100
AcDbEntity
100
AcDbMText
 62
7
 50
0
 40
1.214153
 71
7
  1
121
 10
319920.927700285
 20
5674921.53613323
  0
MTEXT
  5
2001A
  8
Flurstuecke_Nummern
100
AcDbEntity
100
AcDbMText
 62
7
 50
360
 40
1.214153
 71
7
  1
109
 10
320040.69034284
 20
5674888.32289369
  0
MTEXT
  5
2001B
  8
Flurstuecke_Nummern
100
AcDbEntity
100
AcDbMText
 62
7
 50
0
 40
1.214153
 71
7
  1
110
 10
320043.221817039
 20
5674896.51122698
  0
MTEXT
  5
2001C
  8
Flurstuecke_Nummern
100
AcDbEntity
100
AcDbMText
 62
7
 50
0
 40
1.214153
 71
7
  1
12
 10
319932.208015282
 20
5674807.13941835
  0
MTEXT
  5
2001D
  8
Flurstuecke_Nummern
100
AcDbEntity
100
AcDbMText
 62
7
 50
0
 40
1.214153
 71
7
  1
150
 10
319911.271816614
 20
5674805.36977856
  0
MTEXT
  5
2001E
  8
Flurstuecke_Nummern
100
AcDbEntity
100
AcDbMText
 62
7
 50
0
 40
1.214153
 71
7
  1
321
 10
319955.782884124
 20
5674795.51178512
  0
MTEXT
  5
2001F
  8
Flurstuecke_Nummern
100
AcDbEntity
100
AcDbMText
 62
7
 50
0
 40
1.214153
 71
7
  1
158
 10
319937.081309261
 20
5674801.54055798
  0
MTEXT
  5
20020
  8
Flurstuecke_Nummern
100
AcDbEntity
100
AcDbMText
 62
7
 50
0
 40
1.214153
 71
7
  1
214
 10
319906.86853576
 20
5674891.27229335
  0
MTEXT
  5
20021
  8
Flurstuecke_Nummern
100
AcDbEntity
100
AcDbMText
 62
7
 50
360
 40
1.214153
 71
7
  1
146
 10
319860.221794577
 20
5674839.1529021
  0
MTEXT
  5
20022
  8
Flurstuecke_Nummern
100
AcDbEntity
100
AcDbMText
 62
7
 50
0
 40
1.214153
 71
7
  1
4
 10
319880.737455186
 20
5674830.90458102
  0
MTEXT
  5
20023
  8
Flurstuecke_Nummern
100
AcDbEntity
100
AcDbMText
 62
7
 50
0
 40
1.214153
 71
7
  1
7
 10
319903.157905827
 20
5674827.49527498
  0
MTEXT
  5
20024
  8
Flurstuecke_Nummern
100
AcDbEntity
100
AcDbMText
 62
7
 50
360
 40
1.214153
 71
7
  1
153
 10
319913.828028346
 20
5674793.00229592
  0
MTEXT
  5
20025
  8
Flurstuecke_Nummern
100
AcDbEntity
100
AcDbMText
 62
7
 50
360
 40
1.214153
 71
7
  1
276
 10
319867.255499762
 20
5674836.60342104
  0
MTEXT
  5
20026
  8
Flurstuecke_Nummern
100
AcDbEntity
100
AcDbMText
 62
7
 50
0
 40
1.214153
 71
7
  1
120
 10
319935.193010917
 20
5674910.73833109
  0
MTEXT
  5
20027
  8
Flurstuecke_Nummern
100
AcDbEntity
100
AcDbMText
 62
7
 50
0
 40
1.214153
 71
7
  1
270
 10
319854.466195258
 20
5674817.94721845
  0
MTEXT
  5
20028
  8
Flurstuecke_Nummern
100
AcDbEntity
100
AcDbMText
 62
7
 50
0
 40
1.214153
 71
7
  1
293
 10
319874.157271437
 20
5674849.82073069
  0
MTEXT
  5
20029
  8
Flurstuecke_Nummern
100
AcDbEntity
100
AcDbMText
 62
7
 50
0
 40
1.214153
 71
7
  1
152
 10
319917.711821009
 20
5674802.78030564
  0
MTEXT
  5
2002A
  8
Flurstuecke_Nummern
100
AcDbEntity
100
AcDbMText
 62
7
 50
0
 40
1.214153
 71
7
  1
312
 10
319868.047100814
 20
5674814.90783711
  0
MTEXT
  5
2002B
  8
Flurstuecke_Nummern
100
AcDbEntity
100
AcDbMText
 62
7
 50
360
 40
1.214153
 71
7
  1
310
 10
319859.768273141
 20
5674794.91190722
  0
MTEXT
  5
2002C
  8
Flurstuecke_Nummern
100
AcDbEntity
100
AcDbMText
 62
7
 50
360
 40
1.214153
 71
7
  1
26
 10
319962.123938388
 20
5674934.14356702
  0
MTEXT
  5
2002D
  8
Flurstuecke_Nummern
100
AcDbEntity
100
AcDbMText
 62
7
 50
0
 40
1.214153
 71
7
  1
175
 10
320035.808803017
 20
5674831.3944813
  0
MTEXT
  5
2002E
  8
Flurstuecke_Nummern
100
AcDbEntity
100
AcDbMText
 62
7
 50
360
 40
1.214153
 71
7
  1
191
 10
320049.958671829
 20
5674821.38651839
  0
MTEXT
  5
2002F
  8
Flurstuecke_Nummern
100
AcDbEntity
100
AcDbMText
 62
7
 50
360
 40
1.214153
 71
7
  1
102
 10
320055.145307891
 20
5674812.21838454
  0
MTEXT
  5
20030
  8
Flurstuecke_Nummern
100
AcDbEntity
100
AcDbMText
 62
7
 50
0
 40
1.214153
 71
7
  1
195
 10
320005.744454714
 20
5674939.4824803
  0
MTEXT
  5
20031
  8
Flurstuecke_Nummern
100
AcDbEntity
100
AcDbMText
 62
7
 50
360
 40
1.214153
 71
7
  1
181
 10
320017.923566739
 20
5674851.91030537
  0
MTEXT
  5
20032
  8
Flurstuecke_Nummern
100
AcDbEntity
100
AcDbMText
 62
7
 50
0
 40
1.214153
 71
7
  1
101
 10
320057.652044557
 20
5674811.18859415
  0
MTEXT
  5
20033
  8
Flurstuecke_Nummern
100
AcDbEntity
100
AcDbMText
 62
7
 50
360
 40
1.214153
 71
7
  1
144
 10
320029.467748753
 20
5674833.84398271
  0
MTEXT
  5
20034
  8
Flurstuecke_Nummern
100
AcDbEntity
100
AcDbMText
 62
7
 50
360
 40
1.214153
 71
7
  1
198
 10
319976.512936684
 20
5674930.27435459
  0
MTEXT
  5
20035
  8
Flurstuecke_Nummern
100
AcDbEntity
100
AcDbMText
 62
7
 50
0
 40
1.214153
 71
7
  1
30
 10
320030.275841495
 20
5674932.57388653
  0
MTEXT
  5
20036
  8
Flurstuecke_Nummern
100
AcDbEntity
100
AcDbMText
 62
7
 50
0
 40
1.214153
 71
7
  1
143
 10
320024.544979709
 20
5674835.36367339
  0
MTEXT
  5
20037
  8
Flurstuecke_Nummern
100
AcDbEntity
100
AcDbMText
 62
7
 50
0
 40
1.214153
 71
7
  1
180
 10
319988.09834792
 20
5674841.16249305
  0
MTEXT
  5
20038
  8
Flurstuecke_Nummern
100
AcDbEntity
100
AcDbMText
 62
7
 50
0
 40
1.214153
 71
7
  1
197
 10
319983.728050443
 20
5674928.15478602
  0
MTEXT
  5
20039
  8
Flurstuecke_Nummern
100
AcDbEntity
100
AcDbMText
 62
7
 50
360
 40
1.214153
 71
7
  1
176
 10
320031.520963983
 20
5674825.93559244
  0
MTEXT
  5
2003A
  8
Flurstuecke_Nummern
100
AcDbEntity
100
AcDbMText
 62
7
 50
0
 40
1.214153
 71
7
  1
142
 10
320017.766895697
 20
5674837.99313817
  0
MTEXT
  5
2003B
  8
Flurstuecke_Nummern
100
AcDbEntity
100
AcDbMText
 62
7
 50
0
 40
1.214153
 71
7
  1
196
 10
319985.492661123
 20
5674934.11357313
  0
MTEXT
  5
2003C
  8
Flurstuecke_Nummern
100
AcDbEntity
100
AcDbMText
 62
7
 50
0
 40
1.214153
 71
7
  1
132
 10
319932.908912047
 20
5674866.59731587
  0
MTEXT
  5
2003D
  8
Flurstuecke_Nummern
100
AcDbEntity
100
AcDbMText
 62
7
 50
0
 40
1.214153
 71
7
  1
159
 10
319871.683518149
 20
5674881.73423479
  0
MTEXT
  5
2003E
  8
Flurstuecke_Nummern
100
AcDbEntity
100
AcDbMText
 62
7
 50
0
 40
1.214153
 71
7
  1
314
 10
319872.879165571
 20
5674794.78193368
  0
MTEXT
  5
2003F
  8
Flurstuecke_Nummern
100
AcDbEntity
100
AcDbMText
 62
7
 50
0
 40
1.214153
 71
7
  1
313
 10
319875.773456919
 20
5674803.07024662
  0
MTEXT
  5
20040
  8
Flurstuecke_Nummern
100
AcDbEntity
100
AcDbMText
 62
7
 50
0
 40
1.214153
 71
7
  1
154
 10
319922.840736161
 20
5674800.680733
  0
MTEXT
  5
20041
  8
Flurstuecke_Nummern
100
AcDbEntity
100
AcDbMText
 62
7
 50
0
 40
1.214153
 71
7
  1
6
 10
319891.184939909
 20
5674806.22960354
  0
MTEXT
  5
20042
  8
Flurstuecke_Nummern
100
AcDbEntity
100
AcDbMText
 62
7
 50
0
 40
1.214153
 71
7
  1
133
 10
319934.483868307
 20
5674858.4889663
  0
MTEXT
  5
20043
  8
Flurstuecke_Nummern
100
AcDbEntity
100
AcDbMText
 62
7
 50
0
 40
1.214153
 71
7
  1
173
 10
319915.526672271
 20
5674888.11293643
  0
MTEXT
  5
20044
  8
Flurstuecke_Nummern
100
AcDbEntity
100
AcDbMText
 62
7
 50
0
 40
1.214153
 71
7
  1
255
 10
319890.137717683
 20
5674795.51178512
  0
MTEXT
  5
20045
  8
Flurstuecke_Nummern
100
AcDbEntity
100
AcDbMText
 62
7
 50
0
 40
1.214153
 71
7
  1
317
 10
319887.078509449
 20
5674796.401604
  0
MTEXT
  5
20046
  8
Flurstuecke_Nummern
100
AcDbEntity
100
AcDbMText
 62
7
 50
0
 40
1.214153
 71
7
  1
182
 10
320002.759459079
 20
5674835.96355128
  0
MTEXT
  5
20047
  8
Flurstuecke_Nummern
100
AcDbEntity
100
AcDbMText
 62
7
 50
0
 40
1.214153
 71
7
  1
283
 10
319912.95396885
 20
5674827.3453055
  0
MTEXT
  5
20048
  8
Flurstuecke_Nummern
100
AcDbEntity
100
AcDbMText
 62
7
 50
0
 40
1.214153
 71
7
  1
259
 10
319874.701497161
 20
5674799.83090598
  0
MTEXT
  5
20049
  8
Flurstuecke_Nummern
100
AcDbEntity
100
AcDbMText
 62
7
 50
360
 40
1.214153
 71
7
  1
145
 10
319856.824506727
 20
5674856.65933871
  0
MTEXT
  5
2004A
  8
Flurstuecke_Nummern
100
AcDbEntity
100
AcDbMText
 62
7
 50
0
 40
1.214153
 71
7
  1
257
 10
319879.706724649
 20
5674798.57116239
  0
MTEXT
  5
2004B
  8
Flurstuecke_Nummern
100
AcDbEntity
100
AcDbMText
 62
7
 50
360
 40
1.214153
 71
7
  1
174
 10
319914.471204201
 20
5674866.83726703
  0
MTEXT
  5
2004C
  8
Flurstuecke_Nummern
100
AcDbEntity
100
AcDbMText
 62
7
 50
360
 40
1.214153
 71
7
  1
316
 10
319877.282446426
 20
5674793.20225522
  0
MTEXT
  5
2004D
  8
Flurstuecke_Nummern
100
AcDbEntity
100
AcDbMText
 62
7
 50
0
 40
1.214153
 71
7
  1
149
 10
319896.495263635
 20
5674793.40221452
  0
MTEXT
  5
2004E
  8
Flurstuecke_Nummern
100
AcDbEntity
100
AcDbMText
 62
7
 50
0
 40
1.214153
 71
7
  1
315
 10
319880.836405317
 20
5674801.29060886
  0
MTEXT
  5
2004F
  8
Flurstuecke_Nummern
100
AcDbEntity
100
AcDbMText
 62
7
 50
0
 40
1.214153
 71
7
  1
117
 10
319950.637477283
 20
5674908.3388195
  0
MTEXT
  5
20050
  8
Flurstuecke_Nummern
100
AcDbEntity
100
AcDbMText
 62
7
 50
0
 40
1.214153
 71
7
  1
129
 10
319913.127131581
 20
5674883.83380743
  0
MTEXT
  5
20051
  8
Gebaeude_Hausnummern
100
AcDbEntity
100
AcDbMText
 62
7
 50
68.5
 40
1.034789
 71
7
  1
3
 10
320041.78883478
 20
5674836.82337627
  0
MTEXT
  5
20052
  8
Gebaeude_Hausnummern
100
AcDbEntity
100
AcDbMText
 62
7
 50
338.3
 40
1.034789
 71
7
  1
130
 10
319975.515189524
 20
5674829.12124516
  0
MTEXT
  5
20053
  8
Gebaeude_Hausnummern
100
AcDbEntity
100
AcDbMText
 62
7
 50
338.3
 40
1.034789
 71
7
  1
144
 10
319936.347429118
 20
5674842.93843271
  0
MTEXT
  5
20054
  8
Gebaeude_Hausnummern
100
AcDbEntity
100
AcDbMText
 62
7
 50
68.5
 40
1.034789
 71
7
  1
1
 10
320035.761122599
 20
5674821.5564838
  0
MTEXT
  5
20055
  8
Gebaeude_Hausnummern
100
AcDbEntity
100
AcDbMText
 62
7
 50
345.8
 40
1.034789
 71
7
  1
23
 10
320024.231637625
 20
5674904.39545414
  0
MTEXT
  5
20056
  8
Gebaeude_Hausnummern
100
AcDbEntity
100
AcDbMText
 62
7
 50
338.2
 40
1.034789
 71
7
  1
146
 10
319926.501891029
 20
5674846.83860896
  0
MTEXT
  5
20057
  8
Gebaeude_Hausnummern
100
AcDbEntity
100
AcDbMText
 62
7
 50
345.2
 40
1.034789
 71
7
  1
25
 10
320004.62301989
 20
5674909.59832805
  0
MTEXT
  5
20058
  8
Gebaeude_Hausnummern
100
AcDbEntity
100
AcDbMText
 62
7
 50
347.3
 40
1.034789
 71
7
  1
31
 10
319946.300163184
 20
5674924.79216866
  0
MTEXT
  5
20059
  8
Gebaeude_Hausnummern
100
AcDbEntity
100
AcDbMText
 62
7
 50
345.1
 40
1.034789
 71
7
  1
26
 10
320002.45436284
 20
5674927.60533374
  0
MTEXT
  5
2005A
  8
Gebaeude_Hausnummern
100
AcDbEntity
100
AcDbMText
 62
7
 50
338.6
 40
1.034789
 71
7
  1
116
 10
320019.927306903
 20
5674811.29198938
  0
MTEXT
  5
2005B
  8
Gebaeude_Hausnummern
100
AcDbEntity
100
AcDbMText
 62
7
 50
346.6
 40
1.034789
 71
7
  1
33
 10
319938.96136176
 20
5674926.49595985
  0
MTEXT
  5
2005C
  8
Gebaeude_Hausnummern
100
AcDbEntity
100
AcDbMText
 62
7
 50
345.1
 40
1.034789
 71
7
  1
24
 10
320025.427285048
 20
5674921.46658327
  0
MTEXT
  5
2005D
  8
Gebaeude_Hausnummern
100
AcDbEntity
100
AcDbMText
 62
7
 50
339
 40
1.034789
 71
7
  1
114
 10
320026.433278053
 20
5674808.82870386
  0
MTEXT
  5
2005E
  8
Gebaeude_Hausnummern
100
AcDbEntity
100
AcDbMText
 62
7
 50
338.5
 40
1.034789
 71
7
  1
108
 10
320047.996160887
 20
5674800.2451953
  0
MTEXT
  5
2005F
  8
Gebaeude_Hausnummern
100
AcDbEntity
100
AcDbMText
 62
7
 50
337.8
 40
1.034789
 71
7
  1
158
 10
319883.409108738
 20
5674865.20879262
  0
MTEXT
  5
20060
  8
Gebaeude_Hausnummern
100
AcDbEntity
100
AcDbMText
 62
7
 50
345.3
 40
1.034789
 71
7
  1
27
 10
319982.24379847
 20
5674915.41647724
  0
MTEXT
  5
20061
  8
Gebaeude_Hausnummern
100
AcDbEntity
100
AcDbMText
 62
7
 50
337.8
 40
1.034789
 71
7
  1
160
 10
319874.94887249
 20
5674868.75807017
  0
MTEXT
  5
20062
  8
Gebaeude_Hausnummern
100
AcDbEntity
100
AcDbMText
 62
7
 50
338.6
 40
1.034789
 71
7
  1
106
 10
320054.10633151
 20
5674797.78473874
  0
MTEXT
  5
20063
  8
Gebaeude_Hausnummern
100
AcDbEntity
100
AcDbMText
 62
7
 50
345.4
 40
1.034789
 71
7
  1
29
 10
319959.5759725
 20
5674921.45458607
  0
MTEXT
  5
20064
  8
Gebaeude_Hausnummern
100
AcDbEntity
100
AcDbMText
 62
7
 50
68.3
 40
1.034789
 71
7
  1
9
 10
320052.151933958
 20
5674862.81808512
  0
MTEXT
  5
20065
  8
Gebaeude_Hausnummern
100
AcDbEntity
100
AcDbMText
 62
7
 50
338.7
 40
1.034789
 71
7
  1
152
 10
319904.320569872
 20
5674860.15109114
  0
MTEXT
  5
20066
  8
Gebaeude_Hausnummern
100
AcDbEntity
100
AcDbMText
 62
7
 50
68.5
 40
1.034789
 71
7
  1
7
 10
320047.923742936
 20
5674852.39020768
  0
MTEXT
  5
20067
  8
Gebaeude_Hausnummern
100
AcDbEntity
100
AcDbMText
 62
7
 50
68.9
 40
1.034789
 71
7
  1
2
 10
320051.613438513
 20
5674815.09779845
  0
MTEXT
  5
20068
  8
Gebaeude_Hausnummern
100
AcDbEntity
100
AcDbMText
 62
7
 50
338.1
 40
1.034789
 71
7
  1
154
 10
319893.097975785
 20
5674864.61596478
  0
MTEXT
  5
20069
  8
Gebaeude_Hausnummern
100
AcDbEntity
100
AcDbMText
 62
7
 50
68.5
 40
1.034789
 71
7
  1
5
 10
320044.575930152
 20
5674843.81195376
  0
MTEXT
  5
2006A
  8
Gebaeude_Hausnummern
100
AcDbEntity
100
AcDbMText
 62
7
 50
338.3
 40
1.034789
 71
7
  1
120
 10
320008.704712816
 20
5674815.85394568
  0
MTEXT
  5
2006B
  8
Gebaeude_Hausnummern
100
AcDbEntity
100
AcDbMText
 62
7
 50
346.9
 40
1.034789
 71
7
  1
28
 10
319976.356265643
 20
5674935.37235296
  0
MTEXT
  5
2006C
  8
Gebaeude_Hausnummern
100
AcDbEntity
100
AcDbMText
 62
7
 50
68.3
 40
1.034789
 71
7
  1
9\~a
 10
320032.922625059
 20
5674869.81666058
  0
MTEXT
  5
2006D
  8
Gebaeude_Hausnummern
100
AcDbEntity
100
AcDbMText
 62
7
 50
68.6
 40
1.034789
 71
7
  1
11
 10
320055.848956482
 20
5674872.3761396
  0
MTEXT
  5
2006E
  8
Gebaeude_Hausnummern
100
AcDbEntity
100
AcDbMText
 62
7
 50
338.6
 40
1.034789
 71
7
  1
118
 10
320014.311886937
 20
5674813.52153557
  0
MTEXT
  5
2006F
  8
Gebaeude_Hausnummern
100
AcDbEntity
100
AcDbMText
 62
7
 50
338.6
 40
1.034789
 71
7
  1
133
 10
319989.681550025
 20
5674808.42257344
  0
MTEXT
  5
20070
  8
Gebaeude_Hausnummern
100
AcDbEntity
100
AcDbMText
 62
7
 50
338.6
 40
1.034789
 71
7
  1
159
 10
319906.349047569
 20
5674841.20590049
  0
MTEXT
  5
20071
  8
Gebaeude_Hausnummern
100
AcDbEntity
100
AcDbMText
 62
7
 50
338.5
 40
1.034789
 71
7
  1
171
 10
319863.825228534
 20
5674858.0534286
  0
MTEXT
  5
20072
  8
Gebaeude_Hausnummern
100
AcDbEntity
100
AcDbMText
 62
7
 50
338.5
 40
1.034789
 71
7
  1
127
 10
320010.757928046
 20
5674800.07522989
  0
MTEXT
  5
20073
  8
Gebaeude_Hausnummern
100
AcDbEntity
100
AcDbMText
 62
7
 50
338.2
 40
1.034789
 71
7
  1
129
 10
320004.054056633
 20
5674802.66759984
  0
MTEXT
  5
20074
  8
Gebaeude_Hausnummern
100
AcDbEntity
100
AcDbMText
 62
7
 50
338.5
 40
1.034789
 71
7
  1
131
 10
319997.366676909
 20
5674805.37415131
  0
MTEXT
  5
20075
  8
Gebaeude_Hausnummern
100
AcDbEntity
100
AcDbMText
 62
7
 50
342.8
 40
1.034789
 71
7
  1
125
 10
320016.958802956
 20
5674797.4684693
  0
MTEXT
  5
20076
  8
Gebaeude_Hausnummern
100
AcDbEntity
100
AcDbMText
 62
7
 50
340.3
 40
1.034789
 71
7
  1
123
 10
320021.980522133
 20
5674795.44959196
  0
MTEXT
  5
20077
  8
Gebaeude_Hausnummern
100
AcDbEntity
100
AcDbMText
 62
7
 50
337.8
 40
1.034789
 71
7
  1
151
 10
319934.533343373
 20
5674830.14592956
  0
MTEXT
  5
20078
  8
Gebaeude_Hausnummern
100
AcDbEntity
100
AcDbMText
 62
7
 50
338.5
 40
1.034789
 71
7
  1
165
 10
319887.235180491
 20
5674848.69533341
  0
MTEXT
  5
20079
  8
Gebaeude_Hausnummern
100
AcDbEntity
100
AcDbMText
 62
7
 50
338.5
 40
1.034789
 71
7
  1
137
 10
319977.230325138
 20
5674813.40251716
  0
MTEXT
  5
2007A
  8
Gebaeude_Hausnummern
100
AcDbEntity
100
AcDbMText
 62
7
 50
338.2
 40
1.034789
 71
7
  1
153
 10
319929.693032771
 20
5674832.04162084
  0
MTEXT
  5
2007B
  8
Gebaeude_Hausnummern
100
AcDbEntity
100
AcDbMText
 62
7
 50
340.2
 40
1.034789
 71
7
  1
74
 10
319899.30709654
 20
5674800.71940397
  0
MTEXT
  5
2007C
  8
Gebaeude_Hausnummern
100
AcDbEntity
100
AcDbMText
 62
7
 50
338.6
 40
1.034789
 71
7
  1
169
 10
319873.646029091
 20
5674854.16326306
  0
MTEXT
  5
2007D
  8
Gebaeude_Hausnummern
100
AcDbEntity
100
AcDbMText
 62
7
 50
338.8
 40
1.034789
 71
7
  1
139
 10
319971.82105128
 20
5674815.52922493
  0
MTEXT
  5
2007E
  8
Gebaeude_Hausnummern
100
AcDbEntity
100
AcDbMText
 62
7
 50
338.7
 40
1.034789
 71
7
  1
141
 10
319960.128444068
 20
5674820.69912147
  0
MTEXT
  5
2007F
  8
Gebaeude_Hausnummern
100
AcDbEntity
100
AcDbMText
 62
7
 50
338.7
 40
1.034789
 71
7
  1
149
 10
319939.1922454
 20
5674828.57751785
  0
MTEXT
  5
20080
  8
Gebaeude_Hausnummern
100
AcDbEntity
100
AcDbMText
 62
7
 50
338.8
 40
1.034789
 71
7
  1
143
 10
319947.998807109
 20
5674812.69980085
  0
MTEXT
  5
20081
  8
Gebaeude_Hausnummern
100
AcDbEntity
100
AcDbMText
 62
7
 50
338.4
 40
1.034789
 71
7
  1
155
 10
319922.881965383
 20
5674834.62915816
  0
MTEXT
  5
20082
  8
Gebaeude_Hausnummern
100
AcDbEntity
100
AcDbMText
 62
7
 50
338.6
 40
1.034789
 71
7
  1
163
 10
319893.345351114
 20
5674846.34485447
  0
MTEXT
  5
20083
  8
Gebaeude_Hausnummern
100
AcDbEntity
100
AcDbMText
 62
7
 50
338.6
 40
1.034789
 71
7
  1
161
 10
319899.051475367
 20
5674844.01532864
  0
MTEXT
  5
20084
  8
Gebaeude_Hausnummern
100
AcDbEntity
100
AcDbMText
 62
7
 50
338.5
 40
1.034789
 71
7
  1
157
 10
319914.223828872
 20
5674838.08749261
  0
MTEXT
  5
20085
  8
Gebaeude_Hausnummern
100
AcDbEntity
100
AcDbMText
 62
7
 50
338.6
 40
1.034789
 71
7
  1
135
 10
319982.689074062
 20
5674811.26199549
  0
MTEXT
  5
20086
  8
Gebaeude_Hausnummern
100
AcDbEntity
100
AcDbMText
 62
7
 50
338.5
 40
1.034789
 71
7
  1
167
 10
319881.718710657
 20
5674850.92487959
  0
MTEXT
  5
20087
  8
Gebaeude_Hausnummern
100
AcDbEntity
100
AcDbMText
 62
7
 50
338.8
 40
1.034789
 71
7
  1
148-150
 10
319914.141370429
 20
5674852.95160771
  0
MTEXT
  5
20088
  8
Gebaeude_Hausnummern
100
AcDbEntity
100
AcDbMText
 62
7
 50
338.3
 40
1.034789
 71
7
  1
122-128
 10
319990.201038216
 20
5674823.32242549
  0
MTEXT
  5
20089
  8
Gebaeude_Hausnummern
100
AcDbEntity
100
AcDbMText
 62
7
 50
338.8
 40
1.034789
 71
7
  1
145\~a
 10
319953.630718763
 20
5674810.45025874
  0
MTEXT
  5
2008A
  8
Gebaeude_Hausnummern
100
AcDbEntity
100
AcDbMText
 62
7
 50
338.7
 40
1.034789
 71
7
  1
147\~a
 10
319942.869891956
 20
5674827.13781089
  0
MTEXT
  5
2008B
  8
Gebaeude_Hausnummern
100
AcDbEntity
100
AcDbMText
 62
7
 50
338.8
 40
1.034789
 71
7
  1
145
 10
319950.719935726
 20
5674811.61002267
  0
MTEXT
  5
2008C
  8
Gebaeude_Hausnummern
100
AcDbEntity
100
AcDbMText
 62
7
 50
338.7
 40
1.034789
 71
7
  1
147
 10
319947.883365288
 20
5674825.35817313
  0
MTEXT
  5
2008D
  8
Lagebezeichnungen
100
AcDbEntity
100
AcDbMText
 62
7
 50
68.6
 40
1.448705
 71
7
  1
August-Pieper-Straße
 10
320058.427708139
 20
5674854.57976201
  0
MTEXT
  5
2008E
  8
Lagebezeichnungen
100
AcDbEntity
100
AcDbMText
 62
7
 50
338.2
 40
1.448705
 71
7
  1
Waldhausener\~Straße
 10
319954.0100276
 20
5674829.65501513
  0
LWPOLYLINE
  5
2008F
  8
Flurstuecke_Flaechen
100
AcDbEntity
100
AcDbPolyline
 70
0
 90
10
 62
7
370
0
 10
320017.033015555
 20
5674811.81846594
 10
320011.318645458
 20
5674814.09800195
 10
320014.781900062
 20
5674822.73624366
 10
320021.667180049
 20
5674839.88275354
 10
320023.926541387
 20
5674838.99293466
 10
320027.282600015
 20
5674837.67320329
 10
320025.35307245
 20
5674832.80419436
 10
320024.685159062
 20
5674831.11453828
 10
320020.455040938
 20
5674820.45670765
 10
320017.033015555
 20
5674811.81846594
  0
LWPOLYLINE
  5
20090
  8
Flurstuecke_Flaechen
100
AcDbEntity
100
AcDbPolyline
 70
0
 90
10
 62
7
370
0
 10
319970.542945414
 20
5674830.33469702
 10
319989.607337426
 20
5674877.92501015
 10
319999.048829145
 20
5674875.79544361
 10
319988.601344422
 20
5674849.33083041
 10
319986.539883348
 20
5674844.11189271
 10
319983.571379402
 20
5674836.60342104
 10
319983.365233294
 20
5674836.08352686
 10
319979.753553493
 20
5674826.93538894
 10
319979.646357517
 20
5674826.65544592
 10
319970.542945414
 20
5674830.33469702
  0
LWPOLYLINE
  5
20091
  8
Flurstuecke_Flaechen
100
AcDbEntity
100
AcDbPolyline
 70
0
 90
15
 62
7
370
0
 10
320030.003728633
 20
5674877.50509562
 10
320035.668623664
 20
5674875.22555961
 10
320036.748829267
 20
5674874.78564916
 10
320039.338024376
 20
5674873.7458608
 10
320040.4594592
 20
5674873.29595238
 10
320044.590627192
 20
5674871.6362902
 10
320054.568098791
 20
5674867.61710829
 10
320051.434677958
 20
5674859.6587282
 10
320050.643076906
 20
5674857.62914131
 10
320040.640867775
 20
5674861.5983334
 10
320031.669389181
 20
5674865.15760892
 10
320030.605675266
 20
5674865.58752141
 10
320025.979756616
 20
5674867.41714899
 10
320027.595942098
 20
5674871.45632683
 10
320030.003728633
 20
5674877.50509562
  0
LWPOLYLINE
  5
20092
  8
Flurstuecke_Flaechen
100
AcDbEntity
100
AcDbPolyline
 70
0
 90
19
 62
7
370
0
 10
319999.073566678
 20
5674818.95701291
 10
320002.833671677
 20
5674828.38509385
 10
320003.039817785
 20
5674828.89499007
 10
320009.793164263
 20
5674845.84154064
 10
320004.515823914
 20
5674847.88112549
 10
320004.14476092
 20
5674848.021097
 10
320013.33887731
 20
5674870.39654255
 10
320020.710662111
 20
5674867.33716527
 10
320025.204647252
 20
5674865.47754379
 10
320023.877066321
 20
5674862.14822147
 10
320021.78262187
 20
5674856.87929394
 10
320019.209918449
 20
5674850.44060452
 10
320015.903334886
 20
5674842.16228955
 10
320014.608737332
 20
5674838.91295094
 10
320014.039774076
 20
5674837.49323992
 10
320009.380872048
 20
5674825.81561686
 10
320009.067529965
 20
5674825.0357756
 10
320005.604275361
 20
5674816.36753999
 10
319999.073566678
 20
5674818.95701291
  0
LWPOLYLINE
  5
20093
  8
Flurstuecke_Flaechen
100
AcDbEntity
100
AcDbPolyline
 70
0
 90
19
 62
7
370
0
 10
319948.641982964
 20
5674892.56203082
 10
319948.394607635
 20
5674887.22311755
 10
319959.724397697
 20
5674884.67363648
 10
319985.261777482
 20
5674878.90481071
 10
319989.607337426
 20
5674877.92501015
 10
319970.542945414
 20
5674830.33469702
 10
319941.0722979
 20
5674841.82235874
 10
319931.738002157
 20
5674845.47161594
 10
319934.879668834
 20
5674853.70993906
 10
319938.458365258
 20
5674862.99804849
 10
319934.73948948
 20
5674864.54773305
 10
319936.157774699
 20
5674868.17699433
 10
319930.410421225
 20
5674870.39654255
 10
319930.550600578
 20
5674870.76646725
 10
319939.827175411
 20
5674894.83156887
 10
319940.008583986
 20
5674895.31147118
 10
319943.150250662
 20
5674894.31167469
 10
319943.331659237
 20
5674894.2516869
 10
319948.641982964
 20
5674892.56203082
  0
LWPOLYLINE
  5
20094
  8
Flurstuecke_Flaechen
100
AcDbEntity
100
AcDbPolyline
 70
0
 90
14
 62
7
370
0
 10
319900.445023053
 20
5674861.08843718
 10
319904.213373896
 20
5674870.6364937
 10
319904.724616243
 20
5674871.94622711
 10
319915.394738762
 20
5674899.00072025
 10
319915.955456174
 20
5674898.79076298
 10
319918.849747522
 20
5674897.71098277
 10
319921.059633793
 20
5674896.88115168
 10
319911.659371296
 20
5674873.10599105
 10
319909.993710748
 20
5674868.90684577
 10
319911.758321427
 20
5674868.07701468
 10
319911.543929476
 20
5674867.52712661
 10
319910.084415035
 20
5674863.86787144
 10
319907.800316165
 20
5674858.13903753
 10
319900.445023053
 20
5674861.08843718
  0
LWPOLYLINE
  5
20095
  8
Flurstuecke_Flaechen
100
AcDbEntity
100
AcDbPolyline
 70
0
 90
7
 62
7
370
0
 10
319985.261777482
 20
5674878.90481071
 10
319959.724397697
 20
5674884.67363648
 10
319966.230368847
 20
5674909.85851018
 10
319968.976234998
 20
5674920.51634081
 10
319994.389927118
 20
5674913.7577165
 10
319991.594585902
 20
5674903.08988791
 10
319985.261777482
 20
5674878.90481071
  0
LWPOLYLINE
  5
20096
  8
Flurstuecke_Flaechen
100
AcDbEntity
100
AcDbPolyline
 70
0
 90
7
 62
7
370
0
 10
320038.900994628
 20
5674827.76522003
 10
320034.753334947
 20
5674829.40488628
 10
320031.108671768
 20
5674830.8545912
 10
320032.782578161
 20
5674835.12372223
 10
320032.906265825
 20
5674835.45365507
 10
320040.706834529
 20
5674832.3642839
 10
320038.900994628
 20
5674827.76522003
  0
LWPOLYLINE
  5
20097
  8
Flurstuecke_Flaechen
100
AcDbEntity
100
AcDbPolyline
 70
0
 90
10
 62
7
370
0
 10
319898.103203273
 20
5674919.23660129
 10
319913.423981975
 20
5674933.02379495
 10
319915.848260198
 20
5674933.71365453
 10
319934.434393242
 20
5674929.22456827
 10
319932.216261126
 20
5674919.45655652
 10
319928.456156127
 20
5674902.80994489
 10
319928.258255864
 20
5674901.95011991
 10
319925.553618935
 20
5674902.99990623
 10
319906.827306538
 20
5674910.22843488
 10
319898.103203273
 20
5674919.23660129
  0
LWPOLYLINE
  5
20098
  8
Flurstuecke_Flaechen
100
AcDbEntity
100
AcDbPolyline
 70
0
 90
12
 62
7
370
0
 10
319921.826497313
 20
5674848.12107665
 10
319922.230543683
 20
5674849.18086094
 10
319925.454668803
 20
5674857.53915963
 10
319925.644323222
 20
5674858.00906398
 10
319928.934415096
 20
5674866.57731994
 10
319929.066348605
 20
5674866.90725278
 10
319934.73948948
 20
5674864.54773305
 10
319938.458365258
 20
5674862.99804849
 10
319934.879668834
 20
5674853.70993906
 10
319931.738002157
 20
5674845.47161594
 10
319931.300972409
 20
5674844.33184794
 10
319921.826497313
 20
5674848.12107665
  0
LWPOLYLINE
  5
20099
  8
Flurstuecke_Flaechen
100
AcDbEntity
100
AcDbPolyline
 70
0
 90
16
 62
7
370
0
 10
320004.672494955
 20
5674873.98581196
 10
320006.230959527
 20
5674880.10456651
 10
320010.741436357
 20
5674897.78096852
 10
320010.790911423
 20
5674897.97092986
 10
320013.520285885
 20
5674908.66875235
 10
320034.242092601
 20
5674903.3198411
 10
320039.742070746
 20
5674901.90013008
 10
320036.971467063
 20
5674894.96154241
 10
320033.986471428
 20
5674887.48306463
 10
320030.003728633
 20
5674877.50509562
 10
320027.595942098
 20
5674871.45632683
 10
320025.979756616
 20
5674867.41714899
 10
320025.204647252
 20
5674865.47754379
 10
320020.710662111
 20
5674867.33716527
 10
320013.33887731
 20
5674870.39654255
 10
320004.672494955
 20
5674873.98581196
  0
LWPOLYLINE
  5
2009A
  8
Flurstuecke_Flaechen
100
AcDbEntity
100
AcDbPolyline
 70
0
 90
10
 62
7
370
0
 10
320057.866436509
 20
5674816.46751964
 10
320057.454144294
 20
5674815.42773129
 10
320055.739008681
 20
5674811.04862264
 10
320054.287740085
 20
5674807.31938172
 10
320050.832731325
 20
5674798.5111746
 10
320044.466939528
 20
5674801.02066381
 10
320051.912936927
 20
5674820.00679923
 10
320056.143055051
 20
5674818.32714112
 10
320055.747254525
 20
5674817.31734666
 10
320057.866436509
 20
5674816.46751964
  0
LWPOLYLINE
  5
2009B
  8
Flurstuecke_Flaechen
100
AcDbEntity
100
AcDbPolyline
 70
0
 90
8
 62
7
370
0
 10
319943.331659237
 20
5674894.2516869
 10
319943.150250662
 20
5674894.31167469
 10
319946.860880596
 20
5674909.81851832
 10
319950.596248062
 20
5674925.40534566
 10
319950.785902481
 20
5674925.35535584
 10
319948.444082701
 20
5674915.57734612
 10
319948.229690749
 20
5674914.65753335
 10
319943.331659237
 20
5674894.2516869
  0
LWPOLYLINE
  5
2009C
  8
Flurstuecke_Flaechen
100
AcDbEntity
100
AcDbPolyline
 70
0
 90
12
 62
7
370
0
 10
320017.033015555
 20
5674811.81846594
 10
320020.455040938
 20
5674820.45670765
 10
320024.685159062
 20
5674831.11453828
 10
320025.35307245
 20
5674832.80419436
 10
320025.52623518
 20
5674832.73420861
 10
320030.828313062
 20
5674830.66462986
 10
320031.009721637
 20
5674830.59464411
 10
320028.0989386
 20
5674823.16615615
 10
320026.895045333
 20
5674820.08678295
 10
320026.144673502
 20
5674818.16717368
 10
320022.763877341
 20
5674809.53892994
 10
320017.033015555
 20
5674811.81846594
  0
LWPOLYLINE
  5
2009D
  8
Flurstuecke_Flaechen
100
AcDbEntity
100
AcDbPolyline
 70
0
 90
9
 62
7
370
0
 10
319928.258255864
 20
5674901.95011991
 10
319928.456156127
 20
5674902.80994489
 10
319932.216261126
 20
5674919.45655652
 10
319934.434393242
 20
5674929.22456827
 10
319943.174988195
 20
5674927.1049997
 10
319940.89913517
 20
5674917.37697981
 10
319936.537083537
 20
5674898.75077112
 10
319935.992857813
 20
5674898.96072839
 10
319928.258255864
 20
5674901.95011991
  0
LWPOLYLINE
  5
2009E
  8
Flurstuecke_Flaechen
100
AcDbEntity
100
AcDbPolyline
 70
0
 90
10
 62
7
370
0
 10
320031.009721637
 20
5674830.59464411
 10
320030.828313062
 20
5674830.66462986
 10
320025.52623518
 20
5674832.73420861
 10
320025.35307245
 20
5674832.80419436
 10
320027.282600015
 20
5674837.67320329
 10
320031.273588654
 20
5674836.09352483
 10
320032.906265825
 20
5674835.45365507
 10
320032.782578161
 20
5674835.12372223
 10
320031.108671768
 20
5674830.8545912
 10
320031.009721637
 20
5674830.59464411
  0
LWPOLYLINE
  5
2009F
  8
Flurstuecke_Flaechen
100
AcDbEntity
100
AcDbPolyline
 70
0
 90
5
 62
7
370
0
 10
319929.066348605
 20
5674866.90725278
 10
319930.410421225
 20
5674870.39654255
 10
319936.157774699
 20
5674868.17699433
 10
319934.73948948
 20
5674864.54773305
 10
319929.066348605
 20
5674866.90725278
  0
LWPOLYLINE
  5
200A0
  8
Flurstuecke_Flaechen
100
AcDbEntity
100
AcDbPolyline
 70
0
 90
13
 62
7
370
0
 10
320022.763877341
 20
5674809.53892994
 10
320026.144673502
 20
5674818.16717368
 10
320026.895045333
 20
5674820.08678295
 10
320028.0989386
 20
5674823.16615615
 10
320031.009721637
 20
5674830.59464411
 10
320031.108671768
 20
5674830.8545912
 10
320034.753334947
 20
5674829.40488628
 10
320038.900994628
 20
5674827.76522003
 10
320033.904012985
 20
5674815.05780659
 10
320031.017967481
 20
5674807.71930032
 10
320030.514970979
 20
5674806.45955673
 10
320029.311077712
 20
5674806.93945905
 10
320022.763877341
 20
5674809.53892994
  0
LWPOLYLINE
  5
200A1
  8
Flurstuecke_Flaechen
100
AcDbEntity
100
AcDbPolyline
 70
0
 90
10
 62
7
370
0
 10
320013.528531729
 20
5674923.99563261
 10
320016.571248274
 20
5674934.6934551
 10
320017.923566739
 20
5674939.45248641
 10
320040.05541283
 20
5674933.46370541
 10
320040.879997259
 20
5674935.53328415
 10
320042.545657807
 20
5674936.73303994
 10
320044.541152127
 20
5674936.7730318
 10
320040.253313093
 20
5674917.05704494
 10
320036.344782896
 20
5674917.98685568
 10
320013.528531729
 20
5674923.99563261
  0
LWPOLYLINE
  5
200A2
  8
Flurstuecke_Flaechen
100
AcDbEntity
100
AcDbPolyline
 70
0
 90
7
 62
7
370
0
 10
319951.569257689
 20
5674940.88219539
 10
319968.59692616
 20
5674936.81302366
 10
319968.456746807
 20
5674936.31312542
 10
319968.448500963
 20
5674936.27313356
 10
319956.112717896
 20
5674939.62245181
 10
319951.923828993
 20
5674940.73222592
 10
319951.569257689
 20
5674940.88219539
  0
LWPOLYLINE
  5
200A3
  8
Flurstuecke_Flaechen
100
AcDbEntity
100
AcDbPolyline
 70
0
 90
10
 62
7
370
0
 10
320019.209918449
 20
5674850.44060452
 10
320021.78262187
 20
5674856.87929394
 10
320026.416786364
 20
5674855.06966229
 10
320036.526191471
 20
5674851.1304641
 10
320037.111646416
 20
5674850.90051091
 10
320046.544892291
 20
5674847.22125981
 10
320043.963943026
 20
5674840.65259684
 10
320034.538942996
 20
5674844.38183776
 10
320025.336580761
 20
5674848.021097
 10
320019.209918449
 20
5674850.44060452
  0
LWPOLYLINE
  5
200A4
  8
Flurstuecke_Flaechen
100
AcDbEntity
100
AcDbPolyline
 70
0
 90
11
 62
7
370
0
 10
319993.169542162
 20
5674821.30653467
 10
319993.284983982
 20
5674821.58647769
 10
319997.242989245
 20
5674831.20451997
 10
320004.14476092
 20
5674848.021097
 10
320004.515823914
 20
5674847.88112549
 10
320009.793164263
 20
5674845.84154064
 10
320003.039817785
 20
5674828.89499007
 10
320002.833671677
 20
5674828.38509385
 10
319999.073566678
 20
5674818.95701291
 10
319998.801453816
 20
5674819.05699256
 10
319993.169542162
 20
5674821.30653467
  0
LWPOLYLINE
  5
200A5
  8
Flurstuecke_Flaechen
100
AcDbEntity
100
AcDbPolyline
 70
0
 90
13
 62
7
370
0
 10
320021.667180049
 20
5674839.88275354
 10
320015.903334886
 20
5674842.16228955
 10
320019.209918449
 20
5674850.44060452
 10
320025.336580761
 20
5674848.021097
 10
320034.538942996
 20
5674844.38183776
 10
320043.963943026
 20
5674840.65259684
 10
320041.39948545
 20
5674834.1339237
 10
320040.706834529
 20
5674832.3642839
 10
320032.906265825
 20
5674835.45365507
 10
320031.273588654
 20
5674836.09352483
 10
320027.282600015
 20
5674837.67320329
 10
320023.926541387
 20
5674838.99293466
 10
320021.667180049
 20
5674839.88275354
  0
LWPOLYLINE
  5
200A6
  8
Flurstuecke_Flaechen
100
AcDbEntity
100
AcDbPolyline
 70
0
 90
10
 62
7
370
0
 10
319948.641982964
 20
5674892.56203082
 10
319943.331659237
 20
5674894.2516869
 10
319948.229690749
 20
5674914.65753335
 10
319948.444082701
 20
5674915.57734612
 10
319950.785902481
 20
5674925.35535584
 10
319968.976234998
 20
5674920.51634081
 10
319966.230368847
 20
5674909.85851018
 10
319959.724397697
 20
5674884.67363648
 10
319948.394607635
 20
5674887.22311755
 10
319948.641982964
 20
5674892.56203082
  0
LWPOLYLINE
  5
200A7
  8
Flurstuecke_Flaechen
100
AcDbEntity
100
AcDbPolyline
 70
0
 90
10
 62
7
370
0
 10
320005.604275361
 20
5674816.36753999
 10
320009.067529965
 20
5674825.0357756
 10
320009.380872048
 20
5674825.81561686
 10
320014.039774076
 20
5674837.49323992
 10
320014.608737332
 20
5674838.91295094
 10
320015.903334886
 20
5674842.16228955
 10
320021.667180049
 20
5674839.88275354
 10
320014.781900062
 20
5674822.73624366
 10
320011.318645458
 20
5674814.09800195
 10
320005.604275361
 20
5674816.36753999
  0
LWPOLYLINE
  5
200A8
  8
Flurstuecke_Flaechen
100
AcDbEntity
100
AcDbPolyline
 70
0
 90
11
 62
7
370
0
 10
319985.261777482
 20
5674878.90481071
 10
319991.594585902
 20
5674903.08988791
 10
319994.389927118
 20
5674913.7577165
 10
320013.520285885
 20
5674908.66875235
 10
320010.790911423
 20
5674897.97092986
 10
320010.741436357
 20
5674897.78096852
 10
320006.230959527
 20
5674880.10456651
 10
320004.672494955
 20
5674873.98581196
 10
319999.048829145
 20
5674875.79544361
 10
319989.607337426
 20
5674877.92501015
 10
319985.261777482
 20
5674878.90481071
  0
LWPOLYLINE
  5
200A9
  8
Flurstuecke_Flaechen
100
AcDbEntity
100
AcDbPolyline
 70
0
 90
13
 62
7
370
0
 10
320021.78262187
 20
5674856.87929394
 10
320023.877066321
 20
5674862.14822147
 10
320025.204647252
 20
5674865.47754379
 10
320025.979756616
 20
5674867.41714899
 10
320030.605675266
 20
5674865.58752141
 10
320031.669389181
 20
5674865.15760892
 10
320040.640867775
 20
5674861.5983334
 10
320050.643076906
 20
5674857.62914131
 10
320046.544892291
 20
5674847.22125981
 10
320037.111646416
 20
5674850.90051091
 10
320036.526191471
 20
5674851.1304641
 10
320026.416786364
 20
5674855.06966229
 10
320021.78262187
 20
5674856.87929394
  0
LWPOLYLINE
  5
200AA
  8
Flurstuecke_Flaechen
100
AcDbEntity
100
AcDbPolyline
 70
0
 90
7
 62
7
370
0
 10
319968.456746807
 20
5674936.31312542
 10
319968.59692616
 20
5674936.81302366
 10
319983.027153678
 20
5674933.36372576
 10
319982.788024194
 20
5674932.47390688
 10
319982.779778349
 20
5674932.42391705
 10
319968.448500963
 20
5674936.27313356
 10
319968.456746807
 20
5674936.31312542
  0
LWPOLYLINE
  5
200AB
  8
Flurstuecke_Flaechen
100
AcDbEntity
100
AcDbPolyline
 70
0
 90
9
 62
7
370
0
 10
319936.025841191
 20
5674896.54122087
 10
319936.537083537
 20
5674898.75077112
 10
319940.89913517
 20
5674917.37697981
 10
319943.174988195
 20
5674927.1049997
 10
319950.596248062
 20
5674925.40534566
 10
319946.860880596
 20
5674909.81851832
 10
319943.150250662
 20
5674894.31167469
 10
319940.008583986
 20
5674895.31147118
 10
319936.025841191
 20
5674896.54122087
  0
LWPOLYLINE
  5
200AC
  8
Flurstuecke_Flaechen
100
AcDbEntity
100
AcDbPolyline
 70
0
 90
8
 62
7
370
0
 10
319878.840910998
 20
5674899.53061239
 10
319880.737455186
 20
5674897.85095428
 10
319869.910661625
 20
5674870.08660563
 10
319864.633321275
 20
5674872.25616403
 10
319865.886689608
 20
5674875.32553926
 10
319869.349944213
 20
5674883.77381964
 10
319874.033583773
 20
5674892.42205932
 10
319878.840910998
 20
5674899.53061239
  0
LWPOLYLINE
  5
200AD
  8
Flurstuecke_Flaechen
100
AcDbEntity
100
AcDbPolyline
 70
0
 90
16
 62
7
370
0
 10
319988.601344422
 20
5674849.33083041
 10
319999.048829145
 20
5674875.79544361
 10
320004.672494955
 20
5674873.98581196
 10
320013.33887731
 20
5674870.39654255
 10
320004.14476092
 20
5674848.021097
 10
319997.242989245
 20
5674831.20451997
 10
319993.284983982
 20
5674821.58647769
 10
319993.169542162
 20
5674821.30653467
 10
319984.404209676
 20
5674824.78582648
 10
319982.664336529
 20
5674825.46568809
 10
319979.646357517
 20
5674826.65544592
 10
319979.753553493
 20
5674826.93538894
 10
319983.365233294
 20
5674836.08352686
 10
319983.571379402
 20
5674836.60342104
 10
319986.539883348
 20
5674844.11189271
 10
319988.601344422
 20
5674849.33083041
  0
LWPOLYLINE
  5
200AE
  8
Flurstuecke_Flaechen
100
AcDbEntity
100
AcDbPolyline
 70
0
 90
9
 62
7
370
0
 10
319904.213373896
 20
5674870.6364937
 10
319900.445023053
 20
5674861.08843718
 10
319887.59799764
 20
5674866.22739116
 10
319894.895569842
 20
5674884.50367108
 10
319896.181921552
 20
5674887.71301783
 10
319902.597188414
 20
5674903.77974749
 10
319915.394738762
 20
5674899.00072025
 10
319904.724616243
 20
5674871.94622711
 10
319904.213373896
 20
5674870.6364937
  0
LWPOLYLINE
  5
200AF
  8
Flurstuecke_Flaechen
100
AcDbEntity
100
AcDbPolyline
 70
0
 90
13
 62
7
370
0
 10
319925.553618935
 20
5674902.99990623
 10
319922.881965383
 20
5674896.20129006
 10
319921.059633793
 20
5674896.88115168
 10
319918.849747522
 20
5674897.71098277
 10
319915.955456174
 20
5674898.79076298
 10
319915.394738762
 20
5674899.00072025
 10
319902.597188414
 20
5674903.77974749
 10
319895.827350247
 20
5674906.30923262
 10
319890.690189251
 20
5674908.22884189
 10
319887.292901401
 20
5674909.49858344
 10
319898.103203273
 20
5674919.23660129
 10
319906.827306538
 20
5674910.22843488
 10
319925.553618935
 20
5674902.99990623
  0
LWPOLYLINE
  5
200B0
  8
Flurstuecke_Flaechen
100
AcDbEntity
100
AcDbPolyline
 70
0
 90
10
 62
7
370
0
 10
319886.443579438
 20
5674863.31798337
 10
319886.047778912
 20
5674862.31818687
 10
319879.558299451
 20
5674865.03763334
 10
319879.929362445
 20
5674865.98744001
 10
319895.827350247
 20
5674906.30923262
 10
319902.597188414
 20
5674903.77974749
 10
319896.181921552
 20
5674887.71301783
 10
319894.895569842
 20
5674884.50367108
 10
319887.59799764
 20
5674866.22739116
 10
319886.443579438
 20
5674863.31798337
  0
LWPOLYLINE
  5
200B1
  8
Flurstuecke_Flaechen
100
AcDbEntity
100
AcDbPolyline
 70
0
 90
22
 62
7
370
0
 10
319906.703618874
 20
5674855.18963787
 10
319907.800316165
 20
5674858.13903753
 10
319910.084415035
 20
5674863.86787144
 10
319911.543929476
 20
5674867.52712661
 10
319911.758321427
 20
5674868.07701468
 10
319913.473457041
 20
5674872.35614367
 10
319922.881965383
 20
5674896.20129006
 10
319925.553618935
 20
5674902.99990623
 10
319928.258255864
 20
5674901.95011991
 10
319935.992857813
 20
5674898.96072839
 10
319936.537083537
 20
5674898.75077112
 10
319936.025841191
 20
5674896.54122087
 10
319940.008583986
 20
5674895.31147118
 10
319939.827175411
 20
5674894.83156887
 10
319930.550600578
 20
5674870.76646725
 10
319930.410421225
 20
5674870.39654255
 10
319929.066348605
 20
5674866.90725278
 10
319928.934415096
 20
5674866.57731994
 10
319925.644323222
 20
5674858.00906398
 10
319925.454668803
 20
5674857.53915963
 10
319922.230543683
 20
5674849.18086094
 10
319906.703618874
 20
5674855.18963787
  0
LWPOLYLINE
  5
200B2
  8
Flurstuecke_Flaechen
100
AcDbEntity
100
AcDbPolyline
 70
0
 90
5
 62
7
370
0
 10
319911.758321427
 20
5674868.07701468
 10
319909.993710748
 20
5674868.90684577
 10
319911.659371296
 20
5674873.10599105
 10
319913.473457041
 20
5674872.35614367
 10
319911.758321427
 20
5674868.07701468
  0
LWPOLYLINE
  5
200B3
  8
Flurstuecke_Flaechen
100
AcDbEntity
100
AcDbPolyline
 70
0
 90
5
 62
7
370
0
 10
319911.659371296
 20
5674873.10599105
 10
319921.059633793
 20
5674896.88115168
 10
319922.881965383
 20
5674896.20129006
 10
319913.473457041
 20
5674872.35614367
 10
319911.659371296
 20
5674873.10599105
  0
LWPOLYLINE
  5
200B4
  8
Flurstuecke_Flaechen
100
AcDbEntity
100
AcDbPolyline
 70
0
 90
13
 62
7
370
0
 10
319867.733758731
 20
5674826.65544592
 10
319875.262214573
 20
5674846.38143075
 10
319876.367157709
 20
5674845.95151826
 10
319879.335661655
 20
5674853.52997569
 10
319885.231440327
 20
5674851.20044986
 10
319882.163986249
 20
5674843.2320718
 10
319880.440604791
 20
5674838.7529835
 10
319879.714970493
 20
5674836.86336813
 10
319876.993841875
 20
5674829.79480691
 10
319876.086799003
 20
5674827.43528719
 10
319874.767463915
 20
5674824.19594654
 10
319867.939904838
 20
5674826.58546016
 10
319867.733758731
 20
5674826.65544592
  0
LWPOLYLINE
  5
200B5
  8
Flurstuecke_Flaechen
100
AcDbEntity
100
AcDbPolyline
 70
0
 90
13
 62
7
370
0
 10
319874.767463915
 20
5674824.19594654
 10
319876.086799003
 20
5674827.43528719
 10
319876.993841875
 20
5674829.79480691
 10
319879.714970493
 20
5674836.86336813
 10
319880.440604791
 20
5674838.7529835
 10
319882.163986249
 20
5674843.2320718
 10
319885.231440327
 20
5674851.20044986
 10
319890.525272365
 20
5674849.11087518
 10
319887.48255582
 20
5674841.16249305
 10
319885.54478241
 20
5674836.12351872
 10
319880.201475306
 20
5674822.40631082
 10
319876.317682643
 20
5674823.64605847
 10
319874.767463915
 20
5674824.19594654
  0
LWPOLYLINE
  5
200B6
  8
Flurstuecke_Flaechen
100
AcDbEntity
100
AcDbPolyline
 70
0
 90
19
 62
7
370
0
 10
319868.203771856
 20
5674803.24021202
 10
319867.395679115
 20
5674801.21062514
 10
319857.987170773
 20
5674804.40997392
 10
319858.976672088
 20
5674806.88946923
 10
319859.034392998
 20
5674807.0394387
 10
319859.158080663
 20
5674807.35937358
 10
319861.029887318
 20
5674812.02842321
 10
319861.516392132
 20
5674813.2581729
 10
319863.058365015
 20
5674817.11738736
 10
319865.763001944
 20
5674823.89600759
 10
319865.919672986
 20
5674824.2659323
 10
319866.975141056
 20
5674826.92539097
 10
319867.733758731
 20
5674826.65544592
 10
319867.939904838
 20
5674826.58546016
 10
319874.767463915
 20
5674824.19594654
 10
319876.317682643
 20
5674823.64605847
 10
319869.646794607
 20
5674806.85947533
 10
319868.55834316
 20
5674804.1300309
 10
319868.203771856
 20
5674803.24021202
  0
LWPOLYLINE
  5
200B7
  8
Flurstuecke_Flaechen
100
AcDbEntity
100
AcDbPolyline
 70
0
 90
26
 62
7
370
0
 10
319896.651934677
 20
5674817.31734666
 10
319900.07396006
 20
5674816.52750743
 10
319899.818338887
 20
5674815.84764582
 10
319898.301103536
 20
5674811.87845373
 10
319898.268120159
 20
5674811.77847408
 10
319898.13618665
 20
5674811.43854328
 10
319897.67441937
 20
5674810.21879155
 10
319894.483277627
 20
5674801.820501
 10
319893.262892671
 20
5674798.63115018
 10
319889.601737804
 20
5674799.97087749
 10
319886.666217235
 20
5674801.0506577
 10
319883.252437696
 20
5674802.35039314
 10
319879.335661655
 20
5674803.80009806
 10
319880.654996743
 20
5674806.93945905
 10
319886.336383463
 20
5674820.43671172
 10
319885.520044877
 20
5674820.69665881
 10
319889.791392223
 20
5674831.61443653
 10
319892.677437726
 20
5674839.14290413
 10
319895.711908427
 20
5674847.06129237
 10
319903.454756221
 20
5674844.0019151
 10
319900.313089544
 20
5674836.22349837
 10
319899.13393381
 20
5674834.05393998
 10
319901.64891632
 20
5674833.04414552
 10
319899.216392253
 20
5674825.36570844
 10
319897.888811321
 20
5674821.20655503
 10
319896.651934677
 20
5674817.31734666
  0
LWPOLYLINE
  5
200B8
  8
Flurstuecke_Flaechen
100
AcDbEntity
100
AcDbPolyline
 70
0
 90
10
 62
7
370
0
 10
319880.201475306
 20
5674822.40631082
 10
319885.54478241
 20
5674836.12351872
 10
319887.48255582
 20
5674841.16249305
 10
319890.525272365
 20
5674849.11087518
 10
319890.99528549
 20
5674848.93091181
 10
319895.711908427
 20
5674847.06129237
 10
319892.677437726
 20
5674839.14290413
 10
319889.791392223
 20
5674831.61443653
 10
319885.520044877
 20
5674820.69665881
 10
319880.201475306
 20
5674822.40631082
  0
LWPOLYLINE
  5
200B9
  8
Flurstuecke_Flaechen
100
AcDbEntity
100
AcDbPolyline
 70
0
 90
6
 62
7
370
0
 10
319884.505806029
 20
5674795.61176477
 10
319876.878400055
 20
5674797.79132113
 10
319878.387389561
 20
5674801.48057019
 10
319885.990058002
 20
5674799.35100366
 10
319884.744935514
 20
5674796.2016447
 10
319884.505806029
 20
5674795.61176477
  0
LWPOLYLINE
  5
200BA
  8
Flurstuecke_Flaechen
100
AcDbEntity
100
AcDbPolyline
 70
0
 90
6
 62
7
370
0
 10
319982.779778349
 20
5674932.42391705
 10
319982.788024194
 20
5674932.47390688
 10
319983.027153678
 20
5674933.36372576
 10
319987.133584138
 20
5674932.38392519
 10
319986.844979587
 20
5674931.32414091
 10
319982.779778349
 20
5674932.42391705
  0
LWPOLYLINE
  5
200BB
  8
Flurstuecke_Flaechen
100
AcDbEntity
100
AcDbPolyline
 70
0
 90
10
 62
7
370
0
 10
319879.335661655
 20
5674803.80009806
 10
319878.387389561
 20
5674801.48057019
 10
319868.55834316
 20
5674804.1300309
 10
319869.646794607
 20
5674806.85947533
 10
319876.317682643
 20
5674823.64605847
 10
319880.201475306
 20
5674822.40631082
 10
319885.520044877
 20
5674820.69665881
 10
319886.336383463
 20
5674820.43671172
 10
319880.654996743
 20
5674806.93945905
 10
319879.335661655
 20
5674803.80009806
  0
LWPOLYLINE
  5
200BC
  8
Flurstuecke_Flaechen
100
AcDbEntity
100
AcDbPolyline
 70
0
 90
6
 62
7
370
0
 10
319878.387389561
 20
5674801.48057019
 10
319879.335661655
 20
5674803.80009806
 10
319883.252437696
 20
5674802.35039314
 10
319886.666217235
 20
5674801.0506577
 10
319885.990058002
 20
5674799.35100366
 10
319878.387389561
 20
5674801.48057019
  0
LWPOLYLINE
  5
200BD
  8
Flurstuecke_Flaechen
100
AcDbEntity
100
AcDbPolyline
 70
0
 90
7
 62
7
370
0
 10
319876.878400055
 20
5674797.79132113
 10
319867.107074564
 20
5674800.4807737
 10
319867.395679115
 20
5674801.21062514
 10
319868.203771856
 20
5674803.24021202
 10
319868.55834316
 20
5674804.1300309
 10
319878.387389561
 20
5674801.48057019
 10
319876.878400055
 20
5674797.79132113
  0
LWPOLYLINE
  5
200BE
  8
Flurstuecke_Flaechen
100
AcDbEntity
100
AcDbPolyline
 70
0
 90
5
 62
7
370
0
 10
319875.262214573
 20
5674846.38143075
 10
319878.23071852
 20
5674853.96988614
 10
319879.335661655
 20
5674853.52997569
 10
319876.367157709
 20
5674845.95151826
 10
319875.262214573
 20
5674846.38143075
  0
LWPOLYLINE
  5
200BF
  8
Flurstuecke_Flaechen
100
AcDbEntity
100
AcDbPolyline
 70
0
 90
7
 62
7
370
0
 10
319885.990058002
 20
5674799.35100366
 10
319886.666217235
 20
5674801.0506577
 10
319889.601737804
 20
5674799.97087749
 10
319893.262892671
 20
5674798.63115018
 10
319892.99077981
 20
5674797.89130078
 10
319892.834108768
 20
5674797.49138218
 10
319885.990058002
 20
5674799.35100366
  0
LWPOLYLINE
  5
200C0
  8
Flurstuecke_Flaechen
100
AcDbEntity
100
AcDbPolyline
 70
0
 90
9
 62
7
370
0
 10
319879.929362445
 20
5674865.98744001
 10
319869.910661625
 20
5674870.08660563
 10
319880.737455186
 20
5674897.85095428
 10
319878.840910998
 20
5674899.53061239
 10
319880.663242587
 20
5674902.23006292
 10
319887.292901401
 20
5674909.49858344
 10
319890.690189251
 20
5674908.22884189
 10
319895.827350247
 20
5674906.30923262
 10
319879.929362445
 20
5674865.98744001
  0
LWPOLYLINE
  5
200C1
  8
Flurstuecke_Flaechen
100
AcDbEntity
100
AcDbPolyline
 70
0
 90
15
 62
7
370
0
 10
319899.216392253
 20
5674825.36570844
 10
319901.64891632
 20
5674833.04414552
 10
319899.13393381
 20
5674834.05393998
 10
319900.313089544
 20
5674836.22349837
 10
319903.454756221
 20
5674844.0019151
 10
319910.010202437
 20
5674841.41244218
 10
319906.92625667
 20
5674833.68401527
 10
319906.736602251
 20
5674833.22410889
 10
319902.960005564
 20
5674823.76603405
 10
319902.052962691
 20
5674821.49649601
 10
319901.385049303
 20
5674819.80683993
 10
319900.07396006
 20
5674816.52750743
 10
319896.651934677
 20
5674817.31734666
 10
319897.888811321
 20
5674821.20655503
 10
319899.216392253
 20
5674825.36570844
  0
LWPOLYLINE
  5
200C2
  8
Flurstuecke_Flaechen
100
AcDbEntity
100
AcDbPolyline
 70
0
 90
14
 62
7
370
0
 10
319892.834108768
 20
5674797.49138218
 10
319892.99077981
 20
5674797.89130078
 10
319893.262892671
 20
5674798.63115018
 10
319894.483277627
 20
5674801.820501
 10
319897.67441937
 20
5674810.21879155
 10
319898.13618665
 20
5674811.43854328
 10
319898.342332758
 20
5674811.35855956
 10
319901.137673974
 20
5674810.30877324
 10
319902.984743096
 20
5674809.61891366
 10
319907.165386154
 20
5674808.04923316
 10
319903.364051934
 20
5674798.56116443
 10
319902.077700224
 20
5674795.33182175
 10
319901.822079051
 20
5674794.70194996
 10
319892.834108768
 20
5674797.49138218
  0
LWPOLYLINE
  5
200C3
  8
Flurstuecke_Flaechen
100
AcDbEntity
100
AcDbPolyline
 70
0
 90
23
 62
7
370
0
 10
319902.052962691
 20
5674821.49649601
 10
319902.960005564
 20
5674823.76603405
 10
319906.736602251
 20
5674833.22410889
 10
319906.92625667
 20
5674833.68401527
 10
319910.010202437
 20
5674841.41244218
 10
319918.420963619
 20
5674838.08311985
 10
319919.080631162
 20
5674837.82317276
 10
319915.798785132
 20
5674829.62484151
 10
319914.149616273
 20
5674825.50567995
 10
319912.624135078
 20
5674821.69645531
 10
319912.450972348
 20
5674821.26654281
 10
319909.251584761
 20
5674813.2581729
 10
319907.165386154
 20
5674808.04923316
 10
319902.984743096
 20
5674809.61891366
 10
319901.137673974
 20
5674810.30877324
 10
319898.342332758
 20
5674811.35855956
 10
319898.13618665
 20
5674811.43854328
 10
319898.268120159
 20
5674811.77847408
 10
319898.301103536
 20
5674811.87845373
 10
319899.818338887
 20
5674815.84764582
 10
319900.07396006
 20
5674816.52750743
 10
319901.385049303
 20
5674819.80683993
 10
319902.052962691
 20
5674821.49649601
  0
LWPOLYLINE
  5
200C4
  8
Flurstuecke_Flaechen
100
AcDbEntity
100
AcDbPolyline
 70
0
 90
11
 62
7
370
0
 10
319935.061077408
 20
5674806.65951603
 10
319930.031112387
 20
5674794.59197235
 10
319926.666807915
 20
5674794.59197235
 10
319923.648828902
 20
5674795.89170779
 10
319933.618054656
 20
5674820.50669748
 10
319934.318951421
 20
5674822.26633931
 10
319937.592551607
 20
5674830.51466039
 10
319937.773960181
 20
5674830.43467667
 10
319943.64500132
 20
5674828.15514066
 10
319939.678750214
 20
5674818.16717368
 10
319935.061077408
 20
5674806.65951603
  0
LWPOLYLINE
  5
200C5
  8
Flurstuecke_Flaechen
100
AcDbEntity
100
AcDbPolyline
 70
0
 90
5
 62
7
370
0
 10
319857.311011541
 20
5674802.72031785
 10
319857.311011541
 20
5674807.51934102
 10
319858.976672088
 20
5674806.88946923
 10
319857.987170773
 20
5674804.40997392
 10
319857.311011541
 20
5674802.72031785
  0
LWPOLYLINE
  5
200C6
  8
Flurstuecke_Flaechen
100
AcDbEntity
100
AcDbPolyline
 70
0
 90
9
 62
7
370
0
 10
320050.832731325
 20
5674798.5111746
 10
320054.287740085
 20
5674807.31938172
 10
320055.739008681
 20
5674811.04862264
 10
320057.454144294
 20
5674815.42773129
 10
320057.866436509
 20
5674816.46751964
 10
320057.882928198
 20
5674816.45752168
 10
320057.882928198
 20
5674799.29101587
 10
320056.662543242
 20
5674796.21164267
 10
320050.832731325
 20
5674798.5111746
  0
LWPOLYLINE
  5
200C7
  8
Flurstuecke_Flaechen
100
AcDbEntity
100
AcDbPolyline
 70
0
 90
14
 62
7
370
0
 10
320030.003728633
 20
5674877.50509562
 10
320033.986471428
 20
5674887.48306463
 10
320041.993186239
 20
5674884.25372196
 10
320045.712062017
 20
5674882.74402925
 10
320048.515649077
 20
5674881.61425921
 10
320057.882928198
 20
5674877.8250305
 10
320057.882928198
 20
5674876.0553907
 10
320054.568098791
 20
5674867.61710829
 10
320044.590627192
 20
5674871.6362902
 10
320040.4594592
 20
5674873.29595238
 10
320039.338024376
 20
5674873.7458608
 10
320036.748829267
 20
5674874.78564916
 10
320035.668623664
 20
5674875.22555961
 10
320030.003728633
 20
5674877.50509562
  0
LWPOLYLINE
  5
200C8
  8
Flurstuecke_Flaechen
100
AcDbEntity
100
AcDbPolyline
 70
0
 90
8
 62
7
370
0
 10
319949.614992591
 20
5674941.91198578
 10
319970.188374109
 20
5674941.91198578
 10
319969.94099878
 20
5674940.96217911
 10
319969.701869296
 20
5674941.0221669
 10
319968.59692616
 20
5674936.81302366
 10
319951.569257689
 20
5674940.88219539
 10
319950.068514027
 20
5674941.56205701
 10
319949.614992591
 20
5674941.91198578
  0
LWPOLYLINE
  5
200C9
  8
Flurstuecke_Flaechen
100
AcDbEntity
100
AcDbPolyline
 70
0
 90
12
 62
7
370
0
 10
319865.581593369
 20
5674824.37590991
 10
319860.337236397
 20
5674826.09555988
 10
319857.311011541
 20
5674827.01537266
 10
319857.311011541
 20
5674829.74481709
 10
319859.13334313
 20
5674829.18493105
 10
319869.655040452
 20
5674857.35919626
 10
319878.23071852
 20
5674853.96988614
 10
319875.262214573
 20
5674846.38143075
 10
319867.733758731
 20
5674826.65544592
 10
319866.975141056
 20
5674826.92539097
 10
319865.919672986
 20
5674824.2659323
 10
319865.581593369
 20
5674824.37590991
  0
LWPOLYLINE
  5
200CA
  8
Flurstuecke_Flaechen
100
AcDbEntity
100
AcDbPolyline
 70
0
 90
4
 62
7
370
0
 10
319881.331155975
 20
5674941.91198578
 10
319857.311011541
 20
5674920.38636726
 10
319857.311011541
 20
5674941.91198578
 10
319881.331155975
 20
5674941.91198578
  0
LWPOLYLINE
  5
200CB
  8
Flurstuecke_Flaechen
100
AcDbEntity
100
AcDbPolyline
 70
0
 90
10
 62
7
370
0
 10
320040.253313093
 20
5674917.05704494
 10
320044.541152127
 20
5674936.7730318
 10
320046.346992027
 20
5674935.84322106
 10
320047.468426852
 20
5674934.23354871
 10
320047.48491854
 20
5674931.86403102
 10
320057.882928198
 20
5674930.34434034
 10
320057.882928198
 20
5674913.81770429
 10
320053.059109284
 20
5674914.49756591
 10
320044.491677061
 20
5674916.1272342
 10
320040.253313093
 20
5674917.05704494
  0
LWPOLYLINE
  5
200CC
  8
Flurstuecke_Flaechen
100
AcDbEntity
100
AcDbPolyline
 70
0
 90
13
 62
7
370
0
 10
319986.844979587
 20
5674931.32414091
 10
319987.133584138
 20
5674932.38392519
 10
319989.698041714
 20
5674941.91198578
 10
319989.970154575
 20
5674941.91198578
 10
319993.796226329
 20
5674940.86219946
 10
319993.812718017
 20
5674940.91218929
 10
319994.084830879
 20
5674941.91198578
 10
320008.836646325
 20
5674941.91198578
 10
320017.923566739
 20
5674939.45248641
 10
320016.571248274
 20
5674934.6934551
 10
320013.528531729
 20
5674923.99563261
 10
319990.926672514
 20
5674930.22436477
 10
319986.844979587
 20
5674931.32414091
  0
LWPOLYLINE
  5
200CD
  8
Flurstuecke_Flaechen
100
AcDbEntity
100
AcDbPolyline
 70
0
 90
5
 62
7
370
0
 10
320024.784109193
 20
5674794.59197235
 10
320018.67393857
 20
5674794.59197235
 10
320019.952044436
 20
5674797.9412906
 10
320025.254122318
 20
5674795.85171593
 10
320024.784109193
 20
5674794.59197235
  0
LWPOLYLINE
  5
200CE
  8
Flurstuecke_Flaechen
100
AcDbEntity
100
AcDbPolyline
 70
0
 90
5
 62
7
370
0
 10
319884.101759658
 20
5674794.59197235
 10
319875.567310812
 20
5674794.59197235
 10
319876.878400055
 20
5674797.79132113
 10
319884.505806029
 20
5674795.61176477
 10
319884.101759658
 20
5674794.59197235
  0
LWPOLYLINE
  5
200CF
  8
Flurstuecke_Flaechen
100
AcDbEntity
100
AcDbPolyline
 70
0
 90
5
 62
7
370
0
 10
319857.311011541
 20
5674860.01865494
 10
319857.311011541
 20
5674862.23820315
 10
319859.19106404
 20
5674861.49835375
 10
319858.448938053
 20
5674859.55874855
 10
319857.311011541
 20
5674860.01865494
  0
LWPOLYLINE
  5
200D0
  8
Flurstuecke_Flaechen
100
AcDbEntity
100
AcDbPolyline
 70
0
 90
8
 62
7
370
0
 10
319980.30602506
 20
5674794.59197235
 10
319973.363024163
 20
5674794.59197235
 10
319974.525688209
 20
5674797.84131095
 10
319977.040670719
 20
5674804.90987217
 10
319980.240058306
 20
5674813.90804062
 10
319986.226541265
 20
5674811.4885331
 10
319982.24379847
 20
5674800.12084696
 10
319980.30602506
 20
5674794.59197235
  0
LWPOLYLINE
  5
200D1
  8
Flurstuecke_Flaechen
100
AcDbEntity
100
AcDbPolyline
 70
0
 90
4
 62
7
370
0
 10
319902.176650355
 20
5674794.59197235
 10
319901.780849829
 20
5674794.59197235
 10
319901.822079051
 20
5674794.70194996
 10
319902.176650355
 20
5674794.59197235
  0
LWPOLYLINE
  5
200D2
  8
Flurstuecke_Flaechen
100
AcDbEntity
100
AcDbPolyline
 70
0
 90
7
 62
7
370
0
 10
320004.779690931
 20
5674794.59197235
 10
319997.036843137
 20
5674794.59197235
 10
319997.605806394
 20
5674796.17165081
 10
319998.11704874
 20
5674797.61135776
 10
320001.316436327
 20
5674805.45976024
 10
320007.847145009
 20
5674802.85029139
 10
320004.779690931
 20
5674794.59197235
  0
LWPOLYLINE
  5
200D3
  8
Flurstuecke_Flaechen
100
AcDbEntity
100
AcDbPolyline
 70
0
 90
9
 62
7
370
0
 10
319973.363024163
 20
5674794.59197235
 10
319967.277591073
 20
5674794.59197235
 10
319967.607424845
 20
5674795.50178716
 10
319972.084918297
 20
5674807.97924741
 10
319974.954472112
 20
5674815.95762343
 10
319980.240058306
 20
5674813.90804062
 10
319977.040670719
 20
5674804.90987217
 10
319974.525688209
 20
5674797.84131095
 10
319973.363024163
 20
5674794.59197235
  0
LWPOLYLINE
  5
200D4
  8
Flurstuecke_Flaechen
100
AcDbEntity
100
AcDbPolyline
 70
0
 90
17
 62
7
370
0
 10
320030.514970979
 20
5674806.45955673
 10
320031.017967481
 20
5674807.71930032
 10
320033.904012985
 20
5674815.05780659
 10
320038.900994628
 20
5674827.76522003
 10
320040.706834529
 20
5674832.3642839
 10
320041.39948545
 20
5674834.1339237
 10
320043.963943026
 20
5674840.65259684
 10
320046.544892291
 20
5674847.22125981
 10
320050.643076906
 20
5674857.62914131
 10
320051.434677958
 20
5674859.6587282
 10
320054.568098791
 20
5674867.61710829
 10
320057.882928198
 20
5674876.0553907
 10
320057.882928198
 20
5674835.23369984
 10
320052.572604471
 20
5674821.67645938
 10
320051.912936927
 20
5674820.00679923
 10
320044.466939528
 20
5674801.02066381
 10
320030.514970979
 20
5674806.45955673
  0
LWPOLYLINE
  5
200D5
  8
Flurstuecke_Flaechen
100
AcDbEntity
100
AcDbPolyline
 70
0
 90
4
 62
7
370
0
 10
320028.437018216
 20
5674794.59197235
 10
320024.784109193
 20
5674794.59197235
 10
320025.254122318
 20
5674795.85171593
 10
320028.437018216
 20
5674794.59197235
  0
LWPOLYLINE
  5
200D6
  8
Flurstuecke_Flaechen
100
AcDbEntity
100
AcDbPolyline
 70
0
 90
7
 62
7
370
0
 10
319997.036843137
 20
5674794.59197235
 10
319988.823982218
 20
5674794.59197235
 10
319994.299222831
 20
5674808.25919042
 10
320001.316436327
 20
5674805.45976024
 10
319998.11704874
 20
5674797.61135776
 10
319997.605806394
 20
5674796.17165081
 10
319997.036843137
 20
5674794.59197235
  0
LWPOLYLINE
  5
200D7
  8
Flurstuecke_Flaechen
100
AcDbEntity
100
AcDbPolyline
 70
0
 90
13
 62
7
370
0
 10
319857.311011541
 20
5674807.51934102
 10
319857.311011541
 20
5674827.01537266
 10
319860.337236397
 20
5674826.09555988
 10
319865.581593369
 20
5674824.37590991
 10
319865.919672986
 20
5674824.2659323
 10
319865.763001944
 20
5674823.89600759
 10
319863.058365015
 20
5674817.11738736
 10
319861.516392132
 20
5674813.2581729
 10
319861.029887318
 20
5674812.02842321
 10
319859.158080663
 20
5674807.35937358
 10
319859.034392998
 20
5674807.0394387
 10
319858.976672088
 20
5674806.88946923
 10
319857.311011541
 20
5674807.51934102
  0
LWPOLYLINE
  5
200D8
  8
Flurstuecke_Flaechen
100
AcDbEntity
100
AcDbPolyline
 70
0
 90
8
 62
7
370
0
 10
319857.311011541
 20
5674794.59197235
 10
319857.311011541
 20
5674802.72031785
 10
319857.987170773
 20
5674804.40997392
 10
319867.395679115
 20
5674801.21062514
 10
319867.107074564
 20
5674800.4807737
 10
319866.414423643
 20
5674798.7411278
 10
319864.765254784
 20
5674794.59197235
 10
319857.311011541
 20
5674794.59197235
  0
LWPOLYLINE
  5
200D9
  8
Flurstuecke_Flaechen
100
AcDbEntity
100
AcDbPolyline
 70
0
 90
5
 62
7
370
0
 10
319989.970154575
 20
5674941.91198578
 10
319994.084830879
 20
5674941.91198578
 10
319993.812718017
 20
5674940.91218929
 10
319993.796226329
 20
5674940.86219946
 10
319989.970154575
 20
5674941.91198578
  0
LWPOLYLINE
  5
200DA
  8
Flurstuecke_Flaechen
100
AcDbEntity
100
AcDbPolyline
 70
0
 90
12
 62
7
370
0
 10
319923.648828902
 20
5674795.89170779
 10
319923.121094867
 20
5674794.59197235
 10
319917.151103597
 20
5674794.59197235
 10
319923.747779034
 20
5674810.78867556
 10
319924.473413332
 20
5674812.61830314
 10
319926.130828035
 20
5674816.75746063
 10
319929.140561203
 20
5674824.32592009
 10
319932.562586586
 20
5674832.49425745
 10
319937.592551607
 20
5674830.51466039
 10
319934.318951421
 20
5674822.26633931
 10
319933.618054656
 20
5674820.50669748
 10
319923.648828902
 20
5674795.89170779
  0
LWPOLYLINE
  5
200DB
  8
Flurstuecke_Flaechen
100
AcDbEntity
100
AcDbPolyline
 70
0
 90
4
 62
7
370
0
 10
319888.224681806
 20
5674794.59197235
 10
319884.101759658
 20
5674794.59197235
 10
319884.505806029
 20
5674795.61176477
 10
319888.224681806
 20
5674794.59197235
  0
LWPOLYLINE
  5
200DC
  8
Flurstuecke_Flaechen
100
AcDbEntity
100
AcDbPolyline
 70
0
 90
10
 62
7
370
0
 10
320057.882928198
 20
5674819.56688877
 10
320057.882928198
 20
5674816.45752168
 10
320057.866436509
 20
5674816.46751964
 10
320055.747254525
 20
5674817.31734666
 10
320056.143055051
 20
5674818.32714112
 10
320051.912936927
 20
5674820.00679923
 10
320052.572604471
 20
5674821.67645938
 10
320052.613833693
 20
5674821.66646141
 10
320056.794476751
 20
5674819.99680127
 10
320057.882928198
 20
5674819.56688877
  0
LWPOLYLINE
  5
200DD
  8
Flurstuecke_Flaechen
100
AcDbEntity
100
AcDbPolyline
 70
0
 90
7
 62
7
370
0
 10
319970.188374109
 20
5674941.91198578
 10
319985.286515015
 20
5674941.91198578
 10
319983.027153678
 20
5674933.36372576
 10
319968.59692616
 20
5674936.81302366
 10
319969.701869296
 20
5674941.0221669
 10
319969.94099878
 20
5674940.96217911
 10
319970.188374109
 20
5674941.91198578
  0
LWPOLYLINE
  5
200DE
  8
Flurstuecke_Flaechen
100
AcDbEntity
100
AcDbPolyline
 70
0
 90
6
 62
7
370
0
 10
319988.823982218
 20
5674794.59197235
 10
319980.30602506
 20
5674794.59197235
 10
319982.24379847
 20
5674800.12084696
 10
319986.226541265
 20
5674811.4885331
 10
319994.299222831
 20
5674808.25919042
 10
319988.823982218
 20
5674794.59197235
  0
LWPOLYLINE
  5
200DF
  8
Flurstuecke_Flaechen
100
AcDbEntity
100
AcDbPolyline
 70
0
 90
6
 62
7
370
0
 10
319864.765254784
 20
5674794.59197235
 10
319866.414423643
 20
5674798.7411278
 10
319867.107074564
 20
5674800.4807737
 10
319876.878400055
 20
5674797.79132113
 10
319875.567310812
 20
5674794.59197235
 10
319864.765254784
 20
5674794.59197235
  0
LWPOLYLINE
  5
200E0
  8
Flurstuecke_Flaechen
100
AcDbEntity
100
AcDbPolyline
 70
0
 90
4
 62
7
370
0
 10
320057.882928198
 20
5674799.29101587
 10
320057.882928198
 20
5674795.73174035
 10
320056.662543242
 20
5674796.21164267
 10
320057.882928198
 20
5674799.29101587
  0
LWPOLYLINE
  5
200E1
  8
Flurstuecke_Flaechen
100
AcDbEntity
100
AcDbPolyline
 70
0
 90
10
 62
7
370
0
 10
320036.971467063
 20
5674894.96154241
 10
320039.742070746
 20
5674901.90013008
 10
320048.845482849
 20
5674900.10049639
 10
320050.337980667
 20
5674899.88054116
 10
320054.782490742
 20
5674899.25066937
 10
320057.882928198
 20
5674898.82075688
 10
320057.882928198
 20
5674886.58324779
 10
320050.923435612
 20
5674889.37268001
 10
320047.146838924
 20
5674890.88237271
 10
320036.971467063
 20
5674894.96154241
  0
LWPOLYLINE
  5
200E2
  8
Flurstuecke_Flaechen
100
AcDbEntity
100
AcDbPolyline
 70
0
 90
7
 62
7
370
0
 10
319891.729165632
 20
5674794.59197235
 10
319888.224681806
 20
5674794.59197235
 10
319884.505806029
 20
5674795.61176477
 10
319884.744935514
 20
5674796.2016447
 10
319885.990058002
 20
5674799.35100366
 10
319892.834108768
 20
5674797.49138218
 10
319891.729165632
 20
5674794.59197235
  0
LWPOLYLINE
  5
200E3
  8
Flurstuecke_Flaechen
100
AcDbEntity
100
AcDbPolyline
 70
0
 90
18
 62
7
370
0
 10
319919.080631162
 20
5674837.82317276
 10
319919.509415066
 20
5674837.65320736
 10
319927.375950524
 20
5674834.55383822
 10
319924.019891896
 20
5674826.36550494
 10
319923.302503442
 20
5674824.59586514
 10
319921.03489626
 20
5674819.02699867
 10
319911.098653884
 20
5674794.59197235
 10
319902.176650355
 20
5674794.59197235
 10
319901.822079051
 20
5674794.70194996
 10
319902.077700224
 20
5674795.33182175
 10
319903.364051934
 20
5674798.56116443
 10
319907.165386154
 20
5674808.04923316
 10
319909.251584761
 20
5674813.2581729
 10
319912.450972348
 20
5674821.26654281
 10
319912.624135078
 20
5674821.69645531
 10
319914.149616273
 20
5674825.50567995
 10
319915.798785132
 20
5674829.62484151
 10
319919.080631162
 20
5674837.82317276
  0
LWPOLYLINE
  5
200E4
  8
Flurstuecke_Flaechen
100
AcDbEntity
100
AcDbPolyline
 70
0
 90
12
 62
7
370
0
 10
320057.882928198
 20
5674930.34434034
 10
320047.48491854
 20
5674931.86403102
 10
320047.468426852
 20
5674934.23354871
 10
320046.346992027
 20
5674935.84322106
 10
320044.541152127
 20
5674936.7730318
 10
320042.545657807
 20
5674936.73303994
 10
320040.879997259
 20
5674935.53328415
 10
320040.05541283
 20
5674933.46370541
 10
320017.923566739
 20
5674939.45248641
 10
320008.836646325
 20
5674941.91198578
 10
320057.882928198
 20
5674941.91198578
 10
320057.882928198
 20
5674930.34434034
  0
LWPOLYLINE
  5
200E5
  8
Flurstuecke_Flaechen
100
AcDbEntity
100
AcDbPolyline
 70
0
 90
5
 62
7
370
0
 10
320018.67393857
 20
5674794.59197235
 10
320012.64622639
 20
5674794.59197235
 10
320014.757162529
 20
5674800.11084899
 10
320019.952044436
 20
5674797.9412906
 10
320018.67393857
 20
5674794.59197235
  0
LWPOLYLINE
  5
200E6
  8
Flurstuecke_Flaechen
100
AcDbEntity
100
AcDbPolyline
 70
0
 90
7
 62
7
370
0
 10
319857.311011541
 20
5674829.74481709
 10
319857.311011541
 20
5674860.01865494
 10
319858.448938053
 20
5674859.55874855
 10
319859.19106404
 20
5674861.49835375
 10
319869.655040452
 20
5674857.35919626
 10
319859.13334313
 20
5674829.18493105
 10
319857.311011541
 20
5674829.74481709
  0
LWPOLYLINE
  5
200E7
  8
Flurstuecke_Flaechen
100
AcDbEntity
100
AcDbPolyline
 70
0
 90
9
 62
7
370
0
 10
319950.332381044
 20
5674800.8506984
 10
319947.792661001
 20
5674794.59197235
 10
319937.633780828
 20
5674794.59197235
 10
319946.308409028
 20
5674816.60749115
 10
319950.109743248
 20
5674825.63565349
 10
319951.618732754
 20
5674825.0357756
 10
319959.105959375
 20
5674822.1263678
 10
319955.288133466
 20
5674812.93823802
 10
319950.332381044
 20
5674800.8506984
  0
LWPOLYLINE
  5
200E8
  8
Flurstuecke_Flaechen
100
AcDbEntity
100
AcDbPolyline
 70
0
 90
5
 62
7
370
0
 10
319901.780849829
 20
5674794.59197235
 10
319891.729165632
 20
5674794.59197235
 10
319892.834108768
 20
5674797.49138218
 10
319901.822079051
 20
5674794.70194996
 10
319901.780849829
 20
5674794.59197235
  0
LWPOLYLINE
  5
200E9
  8
Flurstuecke_Flaechen
100
AcDbEntity
100
AcDbPolyline
 70
0
 90
5
 62
7
370
0
 10
319983.027153678
 20
5674933.36372576
 10
319985.286515015
 20
5674941.91198578
 10
319989.698041714
 20
5674941.91198578
 10
319987.133584138
 20
5674932.38392519
 10
319983.027153678
 20
5674933.36372576
  0
LWPOLYLINE
  5
200EA
  8
Flurstuecke_Flaechen
100
AcDbEntity
100
AcDbPolyline
 70
0
 90
5
 62
7
370
0
 10
320012.64622639
 20
5674794.59197235
 10
320004.779690931
 20
5674794.59197235
 10
320007.847145009
 20
5674802.85029139
 10
320014.757162529
 20
5674800.11084899
 10
320012.64622639
 20
5674794.59197235
  0
LWPOLYLINE
  5
200EB
  8
Flurstuecke_Flaechen
100
AcDbEntity
100
AcDbPolyline
 70
0
 90
9
 62
7
370
0
 10
319946.308409028
 20
5674816.60749115
 10
319937.633780828
 20
5674794.59197235
 10
319930.031112387
 20
5674794.59197235
 10
319935.061077408
 20
5674806.65951603
 10
319939.678750214
 20
5674818.16717368
 10
319943.64500132
 20
5674828.15514066
 10
319947.025797482
 20
5674826.82541132
 10
319950.109743248
 20
5674825.63565349
 10
319946.308409028
 20
5674816.60749115
  0
LWPOLYLINE
  5
200EC
  8
Flurstuecke_Flaechen
100
AcDbEntity
100
AcDbPolyline
 70
0
 90
10
 62
7
370
0
 10
319967.607424845
 20
5674795.50178716
 10
319967.277591073
 20
5674794.59197235
 10
319960.788111612
 20
5674794.59197235
 10
319961.893054747
 20
5674797.73133334
 10
319962.808343464
 20
5674800.29081236
 10
319966.510727553
 20
5674810.1488058
 10
319969.611165008
 20
5674818.0471981
 10
319974.954472112
 20
5674815.95762343
 10
319972.084918297
 20
5674807.97924741
 10
319967.607424845
 20
5674795.50178716
  0
LWPOLYLINE
  5
200ED
  8
Flurstuecke_Flaechen
100
AcDbEntity
100
AcDbPolyline
 70
0
 90
6
 62
7
370
0
 10
320057.882928198
 20
5674835.23369984
 10
320057.882928198
 20
5674819.56688877
 10
320056.794476751
 20
5674819.99680127
 10
320052.613833693
 20
5674821.66646141
 10
320052.572604471
 20
5674821.67645938
 10
320057.882928198
 20
5674835.23369984
  0
LWPOLYLINE
  5
200EE
  8
Flurstuecke_Flaechen
100
AcDbEntity
100
AcDbPolyline
 70
0
 90
10
 62
7
370
0
 10
320033.986471428
 20
5674887.48306463
 10
320036.971467063
 20
5674894.96154241
 10
320047.146838924
 20
5674890.88237271
 10
320050.923435612
 20
5674889.37268001
 10
320057.882928198
 20
5674886.58324779
 10
320057.882928198
 20
5674877.8250305
 10
320048.515649077
 20
5674881.61425921
 10
320045.712062017
 20
5674882.74402925
 10
320041.993186239
 20
5674884.25372196
 10
320033.986471428
 20
5674887.48306463
  0
LWPOLYLINE
  5
200EF
  8
Flurstuecke_Flaechen
100
AcDbEntity
100
AcDbPolyline
 70
0
 90
4
 62
7
370
0
 10
319926.666807915
 20
5674794.59197235
 10
319923.121094867
 20
5674794.59197235
 10
319923.648828902
 20
5674795.89170779
 10
319926.666807915
 20
5674794.59197235
  0
LWPOLYLINE
  5
200F0
  8
Flurstuecke_Flaechen
100
AcDbEntity
100
AcDbPolyline
 70
0
 90
10
 62
7
370
0
 10
319960.788111612
 20
5674794.59197235
 10
319947.792661001
 20
5674794.59197235
 10
319950.332381044
 20
5674800.8506984
 10
319955.288133466
 20
5674812.93823802
 10
319959.105959375
 20
5674822.1263678
 10
319969.611165008
 20
5674818.0471981
 10
319966.510727553
 20
5674810.1488058
 10
319962.808343464
 20
5674800.29081236
 10
319961.893054747
 20
5674797.73133334
 10
319960.788111612
 20
5674794.59197235
  0
LWPOLYLINE
  5
200F1
  8
Flurstuecke_Flaechen
100
AcDbEntity
100
AcDbPolyline
 70
0
 90
33
 62
7
370
0
 10
319913.423981975
 20
5674933.02379495
 10
319914.553662644
 20
5674934.01359348
 10
319927.36770468
 20
5674941.91198578
 10
319949.614992591
 20
5674941.91198578
 10
319950.068514027
 20
5674941.56205701
 10
319951.569257689
 20
5674940.88219539
 10
319951.923828993
 20
5674940.73222592
 10
319956.112717896
 20
5674939.62245181
 10
319968.448500963
 20
5674936.27313356
 10
319982.779778349
 20
5674932.42391705
 10
319986.844979587
 20
5674931.32414091
 10
319990.926672514
 20
5674930.22436477
 10
320013.528531729
 20
5674923.99563261
 10
320036.344782896
 20
5674917.98685568
 10
320040.253313093
 20
5674917.05704494
 10
320044.491677061
 20
5674916.1272342
 10
320053.059109284
 20
5674914.49756591
 10
320057.882928198
 20
5674913.81770429
 10
320057.882928198
 20
5674898.82075688
 10
320054.782490742
 20
5674899.25066937
 10
320050.337980667
 20
5674899.88054116
 10
320048.845482849
 20
5674900.10049639
 10
320039.742070746
 20
5674901.90013008
 10
320034.242092601
 20
5674903.3198411
 10
320013.520285885
 20
5674908.66875235
 10
319994.389927118
 20
5674913.7577165
 10
319968.976234998
 20
5674920.51634081
 10
319950.785902481
 20
5674925.35535584
 10
319950.596248062
 20
5674925.40534566
 10
319943.174988195
 20
5674927.1049997
 10
319934.434393242
 20
5674929.22456827
 10
319915.848260198
 20
5674933.71365453
 10
319913.423981975
 20
5674933.02379495
  0
LWPOLYLINE
  5
200F2
  8
Flurstuecke_Flaechen
100
AcDbEntity
100
AcDbPolyline
 70
0
 90
72
 62
7
370
0
 10
319857.311011541
 20
5674862.23820315
 10
319857.311011541
 20
5674875.12557996
 10
319860.848478744
 20
5674873.69587098
 10
319862.019388634
 20
5674876.77524418
 10
319865.886689608
 20
5674875.32553926
 10
319864.633321275
 20
5674872.25616403
 10
319869.910661625
 20
5674870.08660563
 10
319879.929362445
 20
5674865.98744001
 10
319879.558299451
 20
5674865.03763334
 10
319886.047778912
 20
5674862.31818687
 10
319886.443579438
 20
5674863.31798337
 10
319887.59799764
 20
5674866.22739116
 10
319900.445023053
 20
5674861.08843718
 10
319907.800316165
 20
5674858.13903753
 10
319906.703618874
 20
5674855.18963787
 10
319922.230543683
 20
5674849.18086094
 10
319921.826497313
 20
5674848.12107665
 10
319931.300972409
 20
5674844.33184794
 10
319931.738002157
 20
5674845.47161594
 10
319941.0722979
 20
5674841.82235874
 10
319970.542945414
 20
5674830.33469702
 10
319979.646357517
 20
5674826.65544592
 10
319982.664336529
 20
5674825.46568809
 10
319984.404209676
 20
5674824.78582648
 10
319993.169542162
 20
5674821.30653467
 10
319998.801453816
 20
5674819.05699256
 10
319999.073566678
 20
5674818.95701291
 10
320005.604275361
 20
5674816.36753999
 10
320011.318645458
 20
5674814.09800195
 10
320017.033015555
 20
5674811.81846594
 10
320022.763877341
 20
5674809.53892994
 10
320029.311077712
 20
5674806.93945905
 10
320030.514970979
 20
5674806.45955673
 10
320044.466939528
 20
5674801.02066381
 10
320050.832731325
 20
5674798.5111746
 10
320056.662543242
 20
5674796.21164267
 10
320057.882928198
 20
5674795.73174035
 10
320057.882928198
 20
5674794.59197235
 10
320028.437018216
 20
5674794.59197235
 10
320025.254122318
 20
5674795.85171593
 10
320019.952044436
 20
5674797.9412906
 10
320014.757162529
 20
5674800.11084899
 10
320007.847145009
 20
5674802.85029139
 10
320001.316436327
 20
5674805.45976024
 10
319994.299222831
 20
5674808.25919042
 10
319986.226541265
 20
5674811.4885331
 10
319980.240058306
 20
5674813.90804062
 10
319974.954472112
 20
5674815.95762343
 10
319969.611165008
 20
5674818.0471981
 10
319959.105959375
 20
5674822.1263678
 10
319951.618732754
 20
5674825.0357756
 10
319950.109743248
 20
5674825.63565349
 10
319947.025797482
 20
5674826.82541132
 10
319943.64500132
 20
5674828.15514066
 10
319937.773960181
 20
5674830.43467667
 10
319937.592551607
 20
5674830.51466039
 10
319932.562586586
 20
5674832.49425745
 10
319927.375950524
 20
5674834.55383822
 10
319919.509415066
 20
5674837.65320736
 10
319919.080631162
 20
5674837.82317276
 10
319918.420963619
 20
5674838.08311985
 10
319910.010202437
 20
5674841.41244218
 10
319903.454756221
 20
5674844.0019151
 10
319895.711908427
 20
5674847.06129237
 10
319890.99528549
 20
5674848.93091181
 10
319890.525272365
 20
5674849.11087518
 10
319885.231440327
 20
5674851.20044986
 10
319879.335661655
 20
5674853.52997569
 10
319878.23071852
 20
5674853.96988614
 10
319869.655040452
 20
5674857.35919626
 10
319859.19106404
 20
5674861.49835375
 10
319857.311011541
 20
5674862.23820315
  0
LWPOLYLINE
  5
200F3
  8
Flurstuecke_Flaechen
100
AcDbEntity
100
AcDbPolyline
 70
0
 90
17
 62
7
370
0
 10
319857.311011541
 20
5674875.12557996
 10
319857.311011541
 20
5674903.65977191
 10
319857.368732451
 20
5674903.70976174
 10
319899.719388755
 20
5674941.91198578
 10
319927.36770468
 20
5674941.91198578
 10
319914.553662644
 20
5674934.01359348
 10
319913.423981975
 20
5674933.02379495
 10
319898.103203273
 20
5674919.23660129
 10
319887.292901401
 20
5674909.49858344
 10
319880.663242587
 20
5674902.23006292
 10
319878.840910998
 20
5674899.53061239
 10
319874.033583773
 20
5674892.42205932
 10
319869.349944213
 20
5674883.77381964
 10
319865.886689608
 20
5674875.32553926
 10
319862.019388634
 20
5674876.77524418
 10
319860.848478744
 20
5674873.69587098
 10
319857.311011541
 20
5674875.12557996
  0
LWPOLYLINE
  5
200F4
  8
Flurstuecke_Flaechen
100
AcDbEntity
100
AcDbPolyline
 70
0
 90
12
 62
7
370
0
 10
319923.747779034
 20
5674810.78867556
 10
319917.151103597
 20
5674794.59197235
 10
319911.098653884
 20
5674794.59197235
 10
319921.03489626
 20
5674819.02699867
 10
319923.302503442
 20
5674824.59586514
 10
319924.019891896
 20
5674826.36550494
 10
319927.375950524
 20
5674834.55383822
 10
319932.562586586
 20
5674832.49425745
 10
319929.140561203
 20
5674824.32592009
 10
319926.130828035
 20
5674816.75746063
 10
319924.473413332
 20
5674812.61830314
 10
319923.747779034
 20
5674810.78867556
  0
LWPOLYLINE
  5
200F5
  8
Flurstuecke_Flaechen
100
AcDbEntity
100
AcDbPolyline
 70
0
 90
6
 62
7
370
0
 10
319857.311011541
 20
5674903.65977191
 10
319857.311011541
 20
5674920.38636726
 10
319881.331155975
 20
5674941.91198578
 10
319899.719388755
 20
5674941.91198578
 10
319857.368732451
 20
5674903.70976174
 10
319857.311011541
 20
5674903.65977191
  0
LWPOLYLINE
  5
200F6
  8
Ueberdachungen
100
AcDbEntity
100
AcDbPolyline
 70
0
 90
5
 62
7
370
0
 10
320053.191042793
 20
5674895.18149764
 10
320052.382950052
 20
5674893.13191483
 10
320048.466174012
 20
5674894.79157701
 10
320049.266020908
 20
5674896.84115982
 10
320053.191042793
 20
5674895.18149764
  0
LWPOLYLINE
  5
200F7
  8
Ueberdachungen
100
AcDbEntity
100
AcDbPolyline
 70
0
 90
6
 62
7
370
0
 10
319914.149616273
 20
5674825.50567995
 10
319912.624135078
 20
5674821.69645531
 10
319909.903006461
 20
5674822.78623349
 10
319911.32129168
 20
5674826.31551511
 10
319911.428487656
 20
5674826.59545813
 10
319914.149616273
 20
5674825.50567995
  0
LWPOLYLINE
  5
200F8
  8
Ueberdachungen
100
AcDbEntity
100
AcDbPolyline
 70
0
 90
8
 62
7
370
0
 10
319903.364051934
 20
5674798.56116443
 10
319902.077700224
 20
5674795.33182175
 10
319898.828837571
 20
5674796.65155313
 10
319896.717901431
 20
5674796.45159383
 10
319892.99077981
 20
5674797.89130078
 10
319893.262892671
 20
5674798.63115018
 10
319894.483277627
 20
5674801.820501
 10
319903.364051934
 20
5674798.56116443
  0
LWPOLYLINE
  5
200F9
  8
Gebaeude_Flaechen
100
AcDbEntity
100
AcDbPolyline
 70
0
 90
5
 62
7
370
0
 10
320032.914511669
 20
5674840.24268028
 10
320023.703903591
 20
5674843.89193748
 10
320025.336580761
 20
5674848.021097
 10
320034.538942996
 20
5674844.38183776
 10
320032.914511669
 20
5674840.24268028
  0
LWPOLYLINE
  5
200FA
  8
Gebaeude_Flaechen
100
AcDbEntity
100
AcDbPolyline
 70
0
 90
6
 62
7
370
0
 10
319913.019935605
 20
5674875.96540902
 10
319920.74629171
 20
5674895.29147525
 10
319926.31223661
 20
5674893.081925
 10
319918.57763466
 20
5674873.7458608
 10
319918.11586738
 20
5674873.92582417
 10
319913.019935605
 20
5674875.96540902
  0
LWPOLYLINE
  5
200FB
  8
Gebaeude_Flaechen
100
AcDbEntity
100
AcDbPolyline
 70
0
 90
10
 62
7
370
0
 10
320021.032250039
 20
5674895.25148339
 10
320021.345592122
 20
5674896.49123105
 10
320016.670198406
 20
5674897.65099498
 10
320016.356856323
 20
5674896.3912514
 10
320010.741436357
 20
5674897.78096852
 10
320010.790911423
 20
5674897.97092986
 10
320013.520285885
 20
5674908.66875235
 10
320034.242092601
 20
5674903.3198411
 10
320031.504472295
 20
5674892.63201658
 10
320021.032250039
 20
5674895.25148339
  0
LWPOLYLINE
  5
200FC
  8
Gebaeude_Flaechen
100
AcDbEntity
100
AcDbPolyline
 70
0
 90
8
 62
7
370
0
 10
319978.120876322
 20
5674838.20309543
 10
319978.277547364
 20
5674838.5530242
 10
319980.932709227
 20
5674841.59240554
 10
319982.524157176
 20
5674845.78155286
 10
319986.539883348
 20
5674844.11189271
 10
319983.571379402
 20
5674836.60342104
 10
319983.365233294
 20
5674836.08352686
 10
319978.120876322
 20
5674838.20309543
  0
LWPOLYLINE
  5
200FD
  8
Gebaeude_Flaechen
100
AcDbEntity
100
AcDbPolyline
 70
0
 90
8
 62
7
370
0
 10
320009.067529965
 20
5674825.0357756
 10
320009.380872048
 20
5674825.81561686
 10
320014.039774076
 20
5674837.49323992
 10
320017.181440752
 20
5674836.2434943
 10
320012.736930677
 20
5674825.09576339
 10
320011.920592092
 20
5674825.4356942
 10
320011.392858057
 20
5674824.10596486
 10
320009.067529965
 20
5674825.0357756
  0
LWPOLYLINE
  5
200FE
  8
Gebaeude_Flaechen
100
AcDbEntity
100
AcDbPolyline
 70
0
 90
5
 62
7
370
0
 10
319991.594585902
 20
5674903.08988791
 10
319994.389927118
 20
5674913.7577165
 10
320013.520285885
 20
5674908.66875235
 10
320010.790911423
 20
5674897.97092986
 10
319991.594585902
 20
5674903.08988791
  0
LWPOLYLINE
  5
200FF
  8
Gebaeude_Flaechen
100
AcDbEntity
100
AcDbPolyline
 70
0
 90
6
 62
7
370
0
 10
319990.926672514
 20
5674930.22436477
 10
319993.796226329
 20
5674940.86219946
 10
319993.812718017
 20
5674940.91218929
 10
320016.571248274
 20
5674934.6934551
 10
320013.528531729
 20
5674923.99563261
 10
319990.926672514
 20
5674930.22436477
  0
LWPOLYLINE
  5
20100
  8
Gebaeude_Flaechen
100
AcDbEntity
100
AcDbPolyline
 70
0
 90
8
 62
7
370
0
 10
320025.979756616
 20
5674867.41714899
 10
320027.595942098
 20
5674871.45632683
 10
320030.003728633
 20
5674877.50509562
 10
320035.668623664
 20
5674875.22555961
 10
320033.986471428
 20
5674870.99642044
 10
320031.669389181
 20
5674865.15760892
 10
320030.605675266
 20
5674865.58752141
 10
320025.979756616
 20
5674867.41714899
  0
LWPOLYLINE
  5
20101
  8
Gebaeude_Flaechen
100
AcDbEntity
100
AcDbPolyline
 70
0
 90
6
 62
7
370
0
 10
320037.664117984
 20
5674869.51672163
 10
320039.338024376
 20
5674873.7458608
 10
320040.4594592
 20
5674873.29595238
 10
320044.590627192
 20
5674871.6362902
 10
320042.933212489
 20
5674867.40715103
 10
320037.664117984
 20
5674869.51672163
  0
LWPOLYLINE
  5
20102
  8
Gebaeude_Flaechen
100
AcDbEntity
100
AcDbPolyline
 70
0
 90
8
 62
7
370
0
 10
320037.111646416
 20
5674850.90051091
 10
320036.526191471
 20
5674851.1304641
 10
320037.614642918
 20
5674853.88990242
 10
320039.255565933
 20
5674858.06905177
 10
320040.640867775
 20
5674861.5983334
 10
320050.643076906
 20
5674857.62914131
 10
320046.544892291
 20
5674847.22125981
 10
320037.111646416
 20
5674850.90051091
  0
LWPOLYLINE
  5
20103
  8
Gebaeude_Flaechen
100
AcDbEntity
100
AcDbPolyline
 70
0
 90
11
 62
7
370
0
 10
319922.543885767
 20
5674859.67872413
 10
319922.387214725
 20
5674859.26880756
 10
319925.644323222
 20
5674858.00906398
 10
319925.454668803
 20
5674857.53915963
 10
319922.230543683
 20
5674849.18086094
 10
319906.703618874
 20
5674855.18963787
 10
319907.800316165
 20
5674858.13903753
 10
319910.084415035
 20
5674863.86787144
 10
319913.696094837
 20
5674862.41816652
 10
319913.877503411
 20
5674862.89806884
 10
319922.543885767
 20
5674859.67872413
  0
LWPOLYLINE
  5
20104
  8
Gebaeude_Flaechen
100
AcDbEntity
100
AcDbPolyline
 70
0
 90
7
 62
7
370
0
 10
319911.543929476
 20
5674867.52712661
 10
319908.418754487
 20
5674868.85685594
 10
319910.397757119
 20
5674873.62588522
 10
319911.659371296
 20
5674873.10599105
 10
319913.473457041
 20
5674872.35614367
 10
319911.758321427
 20
5674868.07701468
 10
319911.543929476
 20
5674867.52712661
  0
LWPOLYLINE
  5
20105
  8
Gebaeude_Flaechen
100
AcDbEntity
100
AcDbPolyline
 70
0
 90
6
 62
7
370
0
 10
320005.604275361
 20
5674816.36753999
 10
320009.067529965
 20
5674825.0357756
 10
320011.392858057
 20
5674824.10596486
 10
320014.781900062
 20
5674822.73624366
 10
320011.318645458
 20
5674814.09800195
 10
320005.604275361
 20
5674816.36753999
  0
LWPOLYLINE
  5
20106
  8
Gebaeude_Flaechen
100
AcDbEntity
100
AcDbPolyline
 70
0
 90
5
 62
7
370
0
 10
320029.756353304
 20
5674816.71746877
 10
320034.753334947
 20
5674829.40488628
 10
320038.900994628
 20
5674827.76522003
 10
320033.904012985
 20
5674815.05780659
 10
320029.756353304
 20
5674816.71746877
  0
LWPOLYLINE
  5
20107
  8
Gebaeude_Flaechen
100
AcDbEntity
100
AcDbPolyline
 70
0
 90
8
 62
7
370
0
 10
319887.48255582
 20
5674841.16249305
 10
319884.637739538
 20
5674842.2622692
 10
319882.163986249
 20
5674843.2320718
 10
319885.231440327
 20
5674851.20044986
 10
319890.525272365
 20
5674849.11087518
 10
319890.99528549
 20
5674848.93091181
 10
319887.911339723
 20
5674841.00252561
 10
319887.48255582
 20
5674841.16249305
  0
LWPOLYLINE
  5
20108
  8
Gebaeude_Flaechen
100
AcDbEntity
100
AcDbPolyline
 70
0
 90
6
 62
7
370
0
 10
319924.019891896
 20
5674826.36550494
 10
319927.375950524
 20
5674834.55383822
 10
319932.562586586
 20
5674832.49425745
 10
319929.140561203
 20
5674824.32592009
 10
319926.064861281
 20
5674825.54567181
 10
319924.019891896
 20
5674826.36550494
  0
LWPOLYLINE
  5
20109
  8
Gebaeude_Flaechen
100
AcDbEntity
100
AcDbPolyline
 70
0
 90
6
 62
7
370
0
 10
319948.229690749
 20
5674914.65753335
 10
319948.444082701
 20
5674915.57734612
 10
319950.785902481
 20
5674925.35535584
 10
319968.976234998
 20
5674920.51634081
 10
319966.230368847
 20
5674909.85851018
 10
319948.229690749
 20
5674914.65753335
  0
LWPOLYLINE
  5
2010A
  8
Gebaeude_Flaechen
100
AcDbEntity
100
AcDbPolyline
 70
0
 90
6
 62
7
370
0
 10
320013.528531729
 20
5674923.99563261
 10
320016.571248274
 20
5674934.6934551
 10
320039.222582556
 20
5674928.63468834
 10
320037.697101361
 20
5674923.00583408
 10
320036.344782896
 20
5674917.98685568
 10
320013.528531729
 20
5674923.99563261
  0
LWPOLYLINE
  5
2010B
  8
Gebaeude_Flaechen
100
AcDbEntity
100
AcDbPolyline
 70
0
 90
8
 62
7
370
0
 10
319921.826497313
 20
5674848.12107665
 10
319922.230543683
 20
5674849.18086094
 10
319925.454668803
 20
5674857.53915963
 10
319929.363198999
 20
5674855.9494832
 10
319934.879668834
 20
5674853.70993906
 10
319931.738002157
 20
5674845.47161594
 10
319931.300972409
 20
5674844.33184794
 10
319921.826497313
 20
5674848.12107665
  0
LWPOLYLINE
  5
2010C
  8
Gebaeude_Flaechen
100
AcDbEntity
100
AcDbPolyline
 70
0
 90
9
 62
7
370
0
 10
320023.976016452
 20
5674819.03699663
 10
320024.462521266
 20
5674820.27674429
 10
320023.58846177
 20
5674820.61667509
 10
320025.056222055
 20
5674824.36591195
 10
320026.309590388
 20
5674823.8660137
 10
320028.0989386
 20
5674823.16615615
 10
320026.895045333
 20
5674820.08678295
 10
320026.144673502
 20
5674818.16717368
 10
320023.976016452
 20
5674819.03699663
  0
LWPOLYLINE
  5
2010D
  8
Gebaeude_Flaechen
100
AcDbEntity
100
AcDbPolyline
 70
0
 90
5
 62
7
370
0
 10
319890.690189251
 20
5674908.22884189
 10
319895.827350247
 20
5674906.30923262
 10
319892.026016027
 20
5674896.67119442
 10
319886.996051006
 20
5674898.63079554
 10
319890.690189251
 20
5674908.22884189
  0
LWPOLYLINE
  5
2010E
  8
Gebaeude_Flaechen
100
AcDbEntity
100
AcDbPolyline
 70
0
 90
12
 62
7
370
0
 10
319900.684152538
 20
5674809.1490093
 10
319897.67441937
 20
5674810.21879155
 10
319898.13618665
 20
5674811.43854328
 10
319898.268120159
 20
5674811.77847408
 10
319898.301103536
 20
5674811.87845373
 10
319899.818338887
 20
5674815.84764582
 10
319900.07396006
 20
5674816.52750743
 10
319901.385049303
 20
5674819.80683993
 10
319902.052962691
 20
5674821.49649601
 10
319905.054450015
 20
5674820.30673818
 10
319901.137673974
 20
5674810.30877324
 10
319900.684152538
 20
5674809.1490093
  0
LWPOLYLINE
  5
2010F
  8
Gebaeude_Flaechen
100
AcDbEntity
100
AcDbPolyline
 70
0
 90
5
 62
7
370
0
 10
320052.613833693
 20
5674821.66646141
 10
320056.794476751
 20
5674819.99680127
 10
320056.143055051
 20
5674818.32714112
 10
320051.912936927
 20
5674820.00679923
 10
320052.613833693
 20
5674821.66646141
  0
LWPOLYLINE
  5
20110
  8
Gebaeude_Flaechen
100
AcDbEntity
100
AcDbPolyline
 70
0
 90
7
 62
7
370
0
 10
320022.763877341
 20
5674809.53892994
 10
320026.144673502
 20
5674818.16717368
 10
320029.756353304
 20
5674816.71746877
 10
320033.904012985
 20
5674815.05780659
 10
320031.017967481
 20
5674807.71930032
 10
320029.311077712
 20
5674806.93945905
 10
320022.763877341
 20
5674809.53892994
  0
LWPOLYLINE
  5
20111
  8
Gebaeude_Flaechen
100
AcDbEntity
100
AcDbPolyline
 70
0
 90
11
 62
7
370
0
 10
319877.422625779
 20
5674876.50529913
 10
319878.717223333
 20
5674879.69464994
 10
319880.993076359
 20
5674878.78483513
 10
319883.169979253
 20
5674884.26371992
 10
319884.744935514
 20
5674883.6438461
 10
319886.526037881
 20
5674888.16292625
 10
319888.381352848
 20
5674887.43307481
 10
319887.48255582
 20
5674885.13354287
 10
319887.235180491
 20
5674884.52366701
 10
319883.161733409
 20
5674874.17577329
 10
319877.422625779
 20
5674876.50529913
  0
LWPOLYLINE
  5
20112
  8
Gebaeude_Flaechen
100
AcDbEntity
100
AcDbPolyline
 70
0
 90
6
 62
7
370
0
 10
319869.910661625
 20
5674870.08660563
 10
319873.101803367
 20
5674878.27493892
 10
319877.422625779
 20
5674876.50529913
 10
319883.161733409
 20
5674874.17577329
 10
319879.929362445
 20
5674865.98744001
 10
319869.910661625
 20
5674870.08660563
  0
LWPOLYLINE
  5
20113
  8
Gebaeude_Flaechen
100
AcDbEntity
100
AcDbPolyline
 70
0
 90
5
 62
7
370
0
 10
319928.65405639
 20
5674866.64730569
 10
319923.533387082
 20
5674868.61690479
 10
319924.613592685
 20
5674871.40633701
 10
319929.726016148
 20
5674869.41674198
 10
319928.65405639
 20
5674866.64730569
  0
LWPOLYLINE
  5
20114
  8
Gebaeude_Flaechen
100
AcDbEntity
100
AcDbPolyline
 70
0
 90
6
 62
7
370
0
 10
320034.538942996
 20
5674844.38183776
 10
320036.221095232
 20
5674848.64097083
 10
320037.111646416
 20
5674850.90051091
 10
320046.544892291
 20
5674847.22125981
 10
320043.963943026
 20
5674840.65259684
 10
320034.538942996
 20
5674844.38183776
  0
LWPOLYLINE
  5
20115
  8
Gebaeude_Flaechen
100
AcDbEntity
100
AcDbPolyline
 70
0
 90
8
 62
7
370
0
 10
320004.672494955
 20
5674873.98581196
 10
320006.230959527
 20
5674880.10456651
 10
320027.595942098
 20
5674871.45632683
 10
320025.979756616
 20
5674867.41714899
 10
320025.204647252
 20
5674865.47754379
 10
320020.710662111
 20
5674867.33716527
 10
320013.33887731
 20
5674870.39654255
 10
320004.672494955
 20
5674873.98581196
  0
LWPOLYLINE
  5
20116
  8
Gebaeude_Flaechen
100
AcDbEntity
100
AcDbPolyline
 70
0
 90
5
 62
7
370
0
 10
319915.081396679
 20
5674896.50122901
 10
319915.955456174
 20
5674898.79076298
 10
319918.849747522
 20
5674897.71098277
 10
319917.975688027
 20
5674895.40145287
 10
319915.081396679
 20
5674896.50122901
  0
LWPOLYLINE
  5
20117
  8
Gebaeude_Flaechen
100
AcDbEntity
100
AcDbPolyline
 70
0
 90
9
 62
7
370
0
 10
319929.140561203
 20
5674824.32592009
 10
319932.562586586
 20
5674832.49425745
 10
319937.592551607
 20
5674830.51466039
 10
319937.773960181
 20
5674830.43467667
 10
319934.475622463
 20
5674822.11636984
 10
319934.285968044
 20
5674822.19635355
 10
319934.318951421
 20
5674822.26633931
 10
319932.133802683
 20
5674823.13616226
 10
319929.140561203
 20
5674824.32592009
  0
LWPOLYLINE
  5
20118
  8
Gebaeude_Flaechen
100
AcDbEntity
100
AcDbPolyline
 70
0
 90
9
 62
7
370
0
 10
320040.706834529
 20
5674832.3642839
 10
320032.906265825
 20
5674835.45365507
 10
320031.273588654
 20
5674836.09352483
 10
320031.97448542
 20
5674837.86316462
 10
320032.914511669
 20
5674840.24268028
 10
320034.538942996
 20
5674844.38183776
 10
320043.963943026
 20
5674840.65259684
 10
320041.39948545
 20
5674834.1339237
 10
320040.706834529
 20
5674832.3642839
  0
LWPOLYLINE
  5
20119
  8
Gebaeude_Flaechen
100
AcDbEntity
100
AcDbPolyline
 70
0
 90
5
 62
7
370
0
 10
319911.906746625
 20
5674873.1759768
 10
319913.019935605
 20
5674875.96540902
 10
319918.11586738
 20
5674873.92582417
 10
319917.010924244
 20
5674871.15638788
 10
319911.906746625
 20
5674873.1759768
  0
LWPOLYLINE
  5
2011A
  8
Gebaeude_Flaechen
100
AcDbEntity
100
AcDbPolyline
 70
0
 90
6
 62
7
370
0
 10
319900.313089544
 20
5674836.22349837
 10
319897.938286387
 20
5674837.13331318
 10
319892.677437726
 20
5674839.14290413
 10
319895.711908427
 20
5674847.06129237
 10
319903.454756221
 20
5674844.0019151
 10
319900.313089544
 20
5674836.22349837
  0
LWPOLYLINE
  5
2011B
  8
Gebaeude_Flaechen
100
AcDbEntity
100
AcDbPolyline
 70
0
 90
7
 62
7
370
0
 10
319891.333365106
 20
5674819.30694169
 10
319897.938286387
 20
5674837.13331318
 10
319900.313089544
 20
5674836.22349837
 10
319899.13393381
 20
5674834.05393998
 10
319896.973522605
 20
5674828.75501856
 10
319893.708168263
 20
5674818.49710653
 10
319891.333365106
 20
5674819.30694169
  0
LWPOLYLINE
  5
2011C
  8
Gebaeude_Flaechen
100
AcDbEntity
100
AcDbPolyline
 70
0
 90
9
 62
7
370
0
 10
319884.637739538
 20
5674842.2622692
 10
319883.862630174
 20
5674840.62260295
 10
319884.48931434
 20
5674839.57281663
 10
319883.466829648
 20
5674836.91335795
 10
319882.963833146
 20
5674835.61362251
 10
319879.714970493
 20
5674836.86336813
 10
319880.440604791
 20
5674838.7529835
 10
319882.163986249
 20
5674843.2320718
 10
319884.637739538
 20
5674842.2622692
  0
LWPOLYLINE
  5
2011D
  8
Gebaeude_Flaechen
100
AcDbEntity
100
AcDbPolyline
 70
0
 90
12
 62
7
370
0
 10
319912.772560276
 20
5674830.83459527
 10
319912.277809618
 20
5674829.57485168
 10
319911.346029213
 20
5674829.94477639
 10
319910.430740496
 20
5674827.60525259
 10
319907.767332788
 20
5674828.64504094
 10
319906.604668742
 20
5674825.68564332
 10
319907.082927712
 20
5674825.49568199
 10
319905.054450015
 20
5674820.30673818
 10
319902.052962691
 20
5674821.49649601
 10
319902.960005564
 20
5674823.76603405
 10
319906.736602251
 20
5674833.22410889
 10
319912.772560276
 20
5674830.83459527
  0
LWPOLYLINE
  5
2011E
  8
Gebaeude_Flaechen
100
AcDbEntity
100
AcDbPolyline
 70
0
 90
7
 62
7
370
0
 10
319978.863002309
 20
5674801.52056205
 10
319979.349507122
 20
5674801.36059461
 10
319977.749813329
 20
5674796.61156126
 10
319974.525688209
 20
5674797.84131095
 10
319977.040670719
 20
5674804.90987217
 10
319979.646357517
 20
5674803.88008178
 10
319978.863002309
 20
5674801.52056205
  0
LWPOLYLINE
  5
2011F
  8
Gebaeude_Flaechen
100
AcDbEntity
100
AcDbPolyline
 70
0
 90
5
 62
7
370
0
 10
319909.251584761
 20
5674813.2581729
 10
319912.450972348
 20
5674821.26654281
 10
319916.318273323
 20
5674819.72685621
 10
319913.110639892
 20
5674811.71848629
 10
319909.251584761
 20
5674813.2581729
  0
LWPOLYLINE
  5
20120
  8
Gebaeude_Flaechen
100
AcDbEntity
100
AcDbPolyline
 70
0
 90
8
 62
7
370
0
 10
319888.505040513
 20
5674836.28348616
 10
319889.99753833
 20
5674840.18269249
 10
319892.677437726
 20
5674839.14290413
 10
319889.791392223
 20
5674831.61443653
 10
319887.779406214
 20
5674832.3942778
 10
319888.735924153
 20
5674834.89376903
 10
319889.1729539
 20
5674836.02353907
 10
319888.505040513
 20
5674836.28348616
  0
LWPOLYLINE
  5
20121
  8
Gebaeude_Flaechen
100
AcDbEntity
100
AcDbPolyline
 70
0
 90
14
 62
7
370
0
 10
319888.150469208
 20
5674874.45571631
 10
319887.317638934
 20
5674874.79564712
 10
319890.82212276
 20
5674883.32391122
 10
319891.762149009
 20
5674882.94398855
 10
319891.93531174
 20
5674883.36390308
 10
319894.054493724
 20
5674888.57284281
 10
319896.181921552
 20
5674887.71301783
 10
319894.895569842
 20
5674884.50367108
 10
319887.59799764
 20
5674866.22739116
 10
319886.443579438
 20
5674863.31798337
 10
319879.929362445
 20
5674865.98744001
 10
319883.161733409
 20
5674874.17577329
 10
319887.342376467
 20
5674872.46612129
 10
319888.150469208
 20
5674874.45571631
  0
LWPOLYLINE
  5
20122
  8
Gebaeude_Flaechen
100
AcDbEntity
100
AcDbPolyline
 70
0
 90
6
 62
7
370
0
 10
320017.033015555
 20
5674811.81846594
 10
320020.455040938
 20
5674820.45670765
 10
320023.976016452
 20
5674819.03699663
 10
320026.144673502
 20
5674818.16717368
 10
320022.763877341
 20
5674809.53892994
 10
320017.033015555
 20
5674811.81846594
  0
LWPOLYLINE
  5
20123
  8
Gebaeude_Flaechen
100
AcDbEntity
100
AcDbPolyline
 70
0
 90
9
 62
7
370
0
 10
319931.548347738
 20
5674820.79663846
 10
319927.046116752
 20
5674809.47894215
 10
319923.747779034
 20
5674810.78867556
 10
319924.473413332
 20
5674812.61830314
 10
319926.130828035
 20
5674816.75746063
 10
319929.140561203
 20
5674824.32592009
 10
319932.133802683
 20
5674823.13616226
 10
319931.366939163
 20
5674821.20655503
 10
319931.548347738
 20
5674820.79663846
  0
LWPOLYLINE
  5
20124
  8
Gebaeude_Flaechen
100
AcDbEntity
100
AcDbPolyline
 70
0
 90
8
 62
7
370
0
 10
320052.176803945
 20
5674808.15921077
 10
320054.287740085
 20
5674807.31938172
 10
320050.832731325
 20
5674798.5111746
 10
320044.466939528
 20
5674801.02066381
 10
320051.912936927
 20
5674820.00679923
 10
320056.143055051
 20
5674818.32714112
 10
320055.747254525
 20
5674817.31734666
 10
320052.176803945
 20
5674808.15921077
  0
LWPOLYLINE
  5
20125
  8
Gebaeude_Flaechen
100
AcDbEntity
100
AcDbPolyline
 70
0
 90
6
 62
7
370
0
 10
320044.590627192
 20
5674871.6362902
 10
320040.4594592
 20
5674873.29595238
 10
320042.215824035
 20
5674877.72505085
 10
320042.702328849
 20
5674878.97479647
 10
320046.825250997
 20
5674877.31513429
 10
320044.590627192
 20
5674871.6362902
  0
LWPOLYLINE
  5
20126
  8
Gebaeude_Flaechen
100
AcDbEntity
100
AcDbPolyline
 70
0
 90
6
 62
7
370
0
 10
319887.911339723
 20
5674841.00252561
 10
319890.99528549
 20
5674848.93091181
 10
319895.711908427
 20
5674847.06129237
 10
319892.677437726
 20
5674839.14290413
 10
319889.99753833
 20
5674840.18269249
 10
319887.911339723
 20
5674841.00252561
  0
LWPOLYLINE
  5
20127
  8
Gebaeude_Flaechen
100
AcDbEntity
100
AcDbPolyline
 70
0
 90
8
 62
7
370
0
 10
320044.590627192
 20
5674871.6362902
 10
320054.568098791
 20
5674867.61710829
 10
320051.434677958
 20
5674859.6587282
 10
320050.643076906
 20
5674857.62914131
 10
320040.640867775
 20
5674861.5983334
 10
320041.440714671
 20
5674863.63791824
 10
320042.933212489
 20
5674867.40715103
 10
320044.590627192
 20
5674871.6362902
  0
LWPOLYLINE
  5
20128
  8
Gebaeude_Flaechen
100
AcDbEntity
100
AcDbPolyline
 70
0
 90
6
 62
7
370
0
 10
320053.191042793
 20
5674895.18149764
 10
320049.266020908
 20
5674896.84115982
 10
320049.200054154
 20
5674896.87115372
 10
320050.337980667
 20
5674899.88054116
 10
320054.782490742
 20
5674899.25066937
 10
320053.191042793
 20
5674895.18149764
  0
LWPOLYLINE
  5
20129
  8
Gebaeude_Flaechen
100
AcDbEntity
100
AcDbPolyline
 70
0
 90
8
 62
7
370
0
 10
319894.483277627
 20
5674801.820501
 10
319897.67441937
 20
5674810.21879155
 10
319900.684152538
 20
5674809.1490093
 10
319901.137673974
 20
5674810.30877324
 10
319902.984743096
 20
5674809.61891366
 10
319907.165386154
 20
5674808.04923316
 10
319903.364051934
 20
5674798.56116443
 10
319894.483277627
 20
5674801.820501
  0
LWPOLYLINE
  5
2012A
  8
Gebaeude_Flaechen
100
AcDbEntity
100
AcDbPolyline
 70
0
 90
8
 62
7
370
0
 10
319900.445023053
 20
5674861.08843718
 10
319904.213373896
 20
5674870.6364937
 10
319907.256090442
 20
5674869.34675623
 10
319908.418754487
 20
5674868.85685594
 10
319911.543929476
 20
5674867.52712661
 10
319910.084415035
 20
5674863.86787144
 10
319907.800316165
 20
5674858.13903753
 10
319900.445023053
 20
5674861.08843718
  0
LWPOLYLINE
  5
2012B
  8
Gebaeude_Flaechen
100
AcDbEntity
100
AcDbPolyline
 70
0
 90
6
 62
7
370
0
 10
319940.89913517
 20
5674917.37697981
 10
319943.174988195
 20
5674927.1049997
 10
319950.596248062
 20
5674925.40534566
 10
319950.785902481
 20
5674925.35535584
 10
319948.444082701
 20
5674915.57734612
 10
319940.89913517
 20
5674917.37697981
  0
LWPOLYLINE
  5
2012C
  8
Gebaeude_Flaechen
100
AcDbEntity
100
AcDbPolyline
 70
0
 90
8
 62
7
370
0
 10
319925.454668803
 20
5674857.53915963
 10
319925.644323222
 20
5674858.00906398
 10
319928.934415096
 20
5674866.57731994
 10
319933.230499974
 20
5674864.72769642
 10
319933.321204262
 20
5674864.23779614
 10
319931.383430852
 20
5674857.49916777
 10
319929.363198999
 20
5674855.9494832
 10
319925.454668803
 20
5674857.53915963
  0
LWPOLYLINE
  5
2012D
  8
Gebaeude_Flaechen
100
AcDbEntity
100
AcDbPolyline
 70
0
 90
7
 62
7
370
0
 10
320040.28629647
 20
5674879.95459703
 10
320041.993186239
 20
5674884.25372196
 10
320045.712062017
 20
5674882.74402925
 10
320048.515649077
 20
5674881.61425921
 10
320046.825250997
 20
5674877.31513429
 10
320042.702328849
 20
5674878.97479647
 10
320040.28629647
 20
5674879.95459703
  0
LWPOLYLINE
  5
2012E
  8
Gebaeude_Flaechen
100
AcDbEntity
100
AcDbPolyline
 70
0
 90
5
 62
7
370
0
 10
319932.216261126
 20
5674919.45655652
 10
319934.434393242
 20
5674929.22456827
 10
319943.174988195
 20
5674927.1049997
 10
319940.89913517
 20
5674917.37697981
 10
319932.216261126
 20
5674919.45655652
  0
LWPOLYLINE
  5
2012F
  8
Gebaeude_Flaechen
100
AcDbEntity
100
AcDbPolyline
 70
0
 90
6
 62
7
370
0
 10
319897.105456113
 20
5674909.69854274
 10
319895.629449984
 20
5674906.36922041
 10
319890.690189251
 20
5674908.22884189
 10
319887.532030886
 20
5674909.72853663
 10
319892.660946038
 20
5674914.36759237
 10
319897.105456113
 20
5674909.69854274
  0
LWPOLYLINE
  5
20130
  8
Gebaeude_Flaechen
100
AcDbEntity
100
AcDbPolyline
 70
0
 90
8
 62
7
370
0
 10
319931.300972409
 20
5674844.33184794
 10
319931.738002157
 20
5674845.47161594
 10
319934.879668834
 20
5674853.70993906
 10
319936.998850818
 20
5674852.94009576
 10
319944.288177175
 20
5674849.9906961
 10
319941.0722979
 20
5674841.82235874
 10
319940.594038931
 20
5674840.61260498
 10
319931.300972409
 20
5674844.33184794
  0
LWPOLYLINE
  5
20131
  8
Gebaeude_Flaechen
100
AcDbEntity
100
AcDbPolyline
 70
0
 90
6
 62
7
370
0
 10
319934.879668834
 20
5674853.70993906
 10
319938.458365258
 20
5674862.99804849
 10
319941.006331145
 20
5674861.92826624
 10
319937.67501005
 20
5674853.41999807
 10
319936.998850818
 20
5674852.94009576
 10
319934.879668834
 20
5674853.70993906
  0
LWPOLYLINE
  5
20132
  8
Gebaeude_Flaechen
100
AcDbEntity
100
AcDbPolyline
 70
0
 90
7
 62
7
370
0
 10
319970.542945414
 20
5674830.33469702
 10
319974.261821191
 20
5674839.77277592
 10
319978.120876322
 20
5674838.20309543
 10
319983.365233294
 20
5674836.08352686
 10
319979.753553493
 20
5674826.93538894
 10
319979.646357517
 20
5674826.65544592
 10
319970.542945414
 20
5674830.33469702
  0
LWPOLYLINE
  5
20133
  8
Gebaeude_Flaechen
100
AcDbEntity
100
AcDbPolyline
 70
0
 90
9
 62
7
370
0
 10
320021.78262187
 20
5674856.87929394
 10
320023.877066321
 20
5674862.14822147
 10
320025.204647252
 20
5674865.47754379
 10
320025.979756616
 20
5674867.41714899
 10
320030.605675266
 20
5674865.58752141
 10
320029.203881736
 20
5674862.06823775
 10
320027.002241309
 20
5674856.53936313
 10
320026.416786364
 20
5674855.06966229
 10
320021.78262187
 20
5674856.87929394
  0
LWPOLYLINE
  5
20134
  8
Gebaeude_Flaechen
100
AcDbEntity
100
AcDbPolyline
 70
0
 90
5
 62
7
370
0
 10
320025.336580761
 20
5674848.021097
 10
320027.018732998
 20
5674852.2702321
 10
320036.221095232
 20
5674848.64097083
 10
320034.538942996
 20
5674844.38183776
 10
320025.336580761
 20
5674848.021097
  0
LWPOLYLINE
  5
20135
  8
Gebaeude_Flaechen
100
AcDbEntity
100
AcDbPolyline
 70
0
 90
7
 62
7
370
0
 10
319924.14357956
 20
5674871.58630037
 10
319933.857184141
 20
5674896.5612168
 10
319939.431374885
 20
5674894.39165841
 10
319930.146554208
 20
5674870.49652219
 10
319929.726016148
 20
5674869.41674198
 10
319924.613592685
 20
5674871.40633701
 10
319924.14357956
 20
5674871.58630037
  0
LWPOLYLINE
  5
20136
  8
Gebaeude_Flaechen
100
AcDbEntity
100
AcDbPolyline
 70
0
 90
6
 62
7
370
0
 10
320025.056222055
 20
5674824.36591195
 10
320025.46851427
 20
5674825.4356942
 10
320026.078706748
 20
5674825.19574304
 10
320026.721882603
 20
5674824.93579595
 10
320026.309590388
 20
5674823.8660137
 10
320025.056222055
 20
5674824.36591195
  0
LWPOLYLINE
  5
20137
  8
Gebaeude_Flaechen
100
AcDbEntity
100
AcDbPolyline
 70
0
 90
6
 62
7
370
0
 10
320017.033015555
 20
5674811.81846594
 10
320011.318645458
 20
5674814.09800195
 10
320014.781900062
 20
5674822.73624366
 10
320017.84935414
 20
5674821.49649601
 10
320020.455040938
 20
5674820.45670765
 10
320017.033015555
 20
5674811.81846594
  0
LWPOLYLINE
  5
20138
  8
Gebaeude_Flaechen
100
AcDbEntity
100
AcDbPolyline
 70
0
 90
27
 62
7
370
0
 10
319992.922166833
 20
5674847.60118248
 10
319988.601344422
 20
5674849.33083041
 10
319999.048829145
 20
5674875.79544361
 10
320004.672494955
 20
5674873.98581196
 10
320013.33887731
 20
5674870.39654255
 10
320020.710662111
 20
5674867.33716527
 10
320025.204647252
 20
5674865.47754379
 10
320023.877066321
 20
5674862.14822147
 10
320020.331353273
 20
5674863.56793249
 10
320010.889861554
 20
5674840.39264975
 10
320014.608737332
 20
5674838.91295094
 10
320014.039774076
 20
5674837.49323992
 10
320009.380872048
 20
5674825.81561686
 10
320009.067529965
 20
5674825.0357756
 10
320005.604275361
 20
5674816.36753999
 10
319999.073566678
 20
5674818.95701291
 10
319998.801453816
 20
5674819.05699256
 10
319993.169542162
 20
5674821.30653467
 10
319984.404209676
 20
5674824.78582648
 10
319982.664336529
 20
5674825.46568809
 10
319979.646357517
 20
5674826.65544592
 10
319979.753553493
 20
5674826.93538894
 10
319983.365233294
 20
5674836.08352686
 10
319983.571379402
 20
5674836.60342104
 10
319986.556375037
 20
5674835.42366117
 10
319987.661318173
 20
5674834.99374868
 10
319992.922166833
 20
5674847.60118248
  0
LWPOLYLINE
  5
20139
  8
Gebaeude_Flaechen
100
AcDbEntity
100
AcDbPolyline
 70
0
 90
5
 62
7
370
0
 10
319966.230368847
 20
5674909.85851018
 10
319968.976234998
 20
5674920.51634081
 10
319994.389927118
 20
5674913.7577165
 10
319991.594585902
 20
5674903.08988791
 10
319966.230368847
 20
5674909.85851018
  0
LWPOLYLINE
  5
2013A
  8
Gebaeude_Flaechen
100
AcDbEntity
100
AcDbPolyline
 70
0
 90
8
 62
7
370
0
 10
319981.575885082
 20
5674803.11023848
 10
319979.646357517
 20
5674803.88008178
 10
319977.040670719
 20
5674804.90987217
 10
319980.240058306
 20
5674813.90804062
 10
319986.226541265
 20
5674811.4885331
 10
319982.24379847
 20
5674800.12084696
 10
319980.734808964
 20
5674800.71072689
 10
319981.575885082
 20
5674803.11023848
  0
LWPOLYLINE
  5
2013B
  8
Gebaeude_Flaechen
100
AcDbEntity
100
AcDbPolyline
 70
0
 90
6
 62
7
370
0
 10
319900.313089544
 20
5674836.22349837
 10
319903.454756221
 20
5674844.0019151
 10
319910.010202437
 20
5674841.41244218
 10
319906.92625667
 20
5674833.68401527
 10
319904.98848326
 20
5674834.42386468
 10
319900.313089544
 20
5674836.22349837
  0
LWPOLYLINE
  5
2013C
  8
Gebaeude_Flaechen
100
AcDbEntity
100
AcDbPolyline
 70
0
 90
6
 62
7
370
0
 10
319896.651934677
 20
5674817.31734666
 10
319897.888811321
 20
5674821.20655503
 10
319901.385049303
 20
5674819.80683993
 10
319900.07396006
 20
5674816.52750743
 10
319899.818338887
 20
5674815.84764582
 10
319896.651934677
 20
5674817.31734666
  0
LWPOLYLINE
  5
2013D
  8
Gebaeude_Flaechen
100
AcDbEntity
100
AcDbPolyline
 70
0
 90
5
 62
7
370
0
 10
319926.130828035
 20
5674816.75746063
 10
319923.046882269
 20
5674817.98721031
 10
319926.064861281
 20
5674825.54567181
 10
319929.140561203
 20
5674824.32592009
 10
319926.130828035
 20
5674816.75746063
  0
LWPOLYLINE
  5
2013E
  8
Gebaeude_Flaechen
100
AcDbEntity
100
AcDbPolyline
 70
0
 90
7
 62
7
370
0
 10
319921.03489626
 20
5674819.02699867
 10
319919.113614539
 20
5674819.80683993
 10
319919.583627664
 20
5674820.96660387
 10
319919.253793893
 20
5674821.10657538
 10
319921.043142105
 20
5674825.51567792
 10
319923.302503442
 20
5674824.59586514
 10
319921.03489626
 20
5674819.02699867
  0
LWPOLYLINE
  5
2013F
  8
Gebaeude_Flaechen
100
AcDbEntity
100
AcDbPolyline
 70
0
 90
7
 62
7
370
0
 10
319883.466829648
 20
5674836.91335795
 10
319884.48931434
 20
5674839.57281663
 10
319883.862630174
 20
5674840.62260295
 10
319884.637739538
 20
5674842.2622692
 10
319887.48255582
 20
5674841.16249305
 10
319885.54478241
 20
5674836.12351872
 10
319883.466829648
 20
5674836.91335795
  0
LWPOLYLINE
  5
20140
  8
Gebaeude_Flaechen
100
AcDbEntity
100
AcDbPolyline
 70
0
 90
8
 62
7
370
0
 10
319908.484721242
 20
5674823.35611749
 10
319909.903006461
 20
5674822.78623349
 10
319912.624135078
 20
5674821.69645531
 10
319912.450972348
 20
5674821.26654281
 10
319909.251584761
 20
5674813.2581729
 10
319907.165386154
 20
5674808.04923316
 10
319902.984743096
 20
5674809.61891366
 10
319908.484721242
 20
5674823.35611749
  0
LWPOLYLINE
  5
20141
  8
Gebaeude_Flaechen
100
AcDbEntity
100
AcDbPolyline
 70
0
 90
8
 62
7
370
0
 10
319900.445023053
 20
5674824.84581426
 10
319903.801081682
 20
5674833.24410482
 10
319904.592682734
 20
5674833.42406819
 10
319904.98848326
 20
5674834.42386468
 10
319906.92625667
 20
5674833.68401527
 10
319906.736602251
 20
5674833.22410889
 10
319902.960005564
 20
5674823.76603405
 10
319900.445023053
 20
5674824.84581426
  0
LWPOLYLINE
  5
20142
  8
Gebaeude_Flaechen
100
AcDbEntity
100
AcDbPolyline
 70
0
 90
6
 62
7
370
0
 10
319876.086799003
 20
5674827.43528719
 10
319874.767463915
 20
5674824.19594654
 10
319867.939904838
 20
5674826.58546016
 10
319867.733758731
 20
5674826.65544592
 10
319869.020110441
 20
5674829.84479674
 10
319876.086799003
 20
5674827.43528719
  0
LWPOLYLINE
  5
20143
  8
Gebaeude_Flaechen
100
AcDbEntity
100
AcDbPolyline
 70
0
 90
7
 62
7
370
0
 10
319934.73948948
 20
5674864.54773305
 10
319936.157774699
 20
5674868.17699433
 10
319936.932884063
 20
5674870.17658732
 10
319943.257446638
 20
5674867.69709201
 10
319941.006331145
 20
5674861.92826624
 10
319938.458365258
 20
5674862.99804849
 10
319934.73948948
 20
5674864.54773305
  0
LWPOLYLINE
  5
20144
  8
Gebaeude_Flaechen
100
AcDbEntity
100
AcDbPolyline
 70
0
 90
12
 62
7
370
0
 10
320034.753334947
 20
5674829.40488628
 10
320031.108671768
 20
5674830.8545912
 10
320031.009721637
 20
5674830.59464411
 10
320030.828313062
 20
5674830.66462986
 10
320025.52623518
 20
5674832.73420861
 10
320025.35307245
 20
5674832.80419436
 10
320027.282600015
 20
5674837.67320329
 10
320031.273588654
 20
5674836.09352483
 10
320032.906265825
 20
5674835.45365507
 10
320040.706834529
 20
5674832.3642839
 10
320038.900994628
 20
5674827.76522003
 10
320034.753334947
 20
5674829.40488628
  0
LWPOLYLINE
  5
20145
  8
Gebaeude_Flaechen
100
AcDbEntity
100
AcDbPolyline
 70
0
 90
10
 62
7
370
0
 10
319883.161733409
 20
5674874.17577329
 10
319887.235180491
 20
5674884.52366701
 10
319887.48255582
 20
5674885.13354287
 10
319891.93531174
 20
5674883.36390308
 10
319891.762149009
 20
5674882.94398855
 10
319890.82212276
 20
5674883.32391122
 10
319887.317638934
 20
5674874.79564712
 10
319888.150469208
 20
5674874.45571631
 10
319887.342376467
 20
5674872.46612129
 10
319883.161733409
 20
5674874.17577329
  0
LWPOLYLINE
  5
20146
  8
Gebaeude_Flaechen
100
AcDbEntity
100
AcDbPolyline
 70
0
 90
7
 62
7
370
0
 10
320014.781900062
 20
5674822.73624366
 10
320021.667180049
 20
5674839.88275354
 10
320023.926541387
 20
5674838.99293466
 10
320021.279625367
 20
5674832.68421878
 10
320022.343339282
 20
5674832.23431036
 10
320017.84935414
 20
5674821.49649601
 10
320014.781900062
 20
5674822.73624366
  0
LWPOLYLINE
  5
20147
  8
Gebaeude_Flaechen
100
AcDbEntity
100
AcDbPolyline
 70
0
 90
6
 62
7
370
0
 10
320033.986471428
 20
5674870.99642044
 10
320035.668623664
 20
5674875.22555961
 10
320036.748829267
 20
5674874.78564916
 10
320039.338024376
 20
5674873.7458608
 10
320037.664117984
 20
5674869.51672163
 10
320033.986471428
 20
5674870.99642044
  0
LWPOLYLINE
  5
20148
  8
Gebaeude_Flaechen
100
AcDbEntity
100
AcDbPolyline
 70
0
 90
8
 62
7
370
0
 10
319904.213373896
 20
5674870.6364937
 10
319900.445023053
 20
5674861.08843718
 10
319887.59799764
 20
5674866.22739116
 10
319894.895569842
 20
5674884.50367108
 10
319901.64891632
 20
5674881.81421851
 10
319898.680412374
 20
5674874.35573666
 10
319904.724616243
 20
5674871.94622711
 10
319904.213373896
 20
5674870.6364937
  0
LWPOLYLINE
  5
20149
  8
Gebaeude_Flaechen
100
AcDbEntity
100
AcDbPolyline
 70
0
 90
14
 62
7
370
0
 10
319933.230499974
 20
5674864.72769642
 10
319928.934415096
 20
5674866.57731994
 10
319928.65405639
 20
5674866.64730569
 10
319929.726016148
 20
5674869.41674198
 10
319930.146554208
 20
5674870.49652219
 10
319930.410421225
 20
5674870.39654255
 10
319936.157774699
 20
5674868.17699433
 10
319934.73948948
 20
5674864.54773305
 10
319938.458365258
 20
5674862.99804849
 10
319934.879668834
 20
5674853.70993906
 10
319929.363198999
 20
5674855.9494832
 10
319931.383430852
 20
5674857.49916777
 10
319933.321204262
 20
5674864.23779614
 10
319933.230499974
 20
5674864.72769642
  0
LWPOLYLINE
  5
2014A
  8
Gebaeude_Flaechen
100
AcDbEntity
100
AcDbPolyline
 70
0
 90
14
 62
7
370
0
 10
319899.216392253
 20
5674825.36570844
 10
319897.888811321
 20
5674821.20655503
 10
319896.651934677
 20
5674817.31734666
 10
319899.818338887
 20
5674815.84764582
 10
319898.301103536
 20
5674811.87845373
 10
319898.268120159
 20
5674811.77847408
 10
319889.098741302
 20
5674815.42773129
 10
319891.118973154
 20
5674818.72705972
 10
319891.333365106
 20
5674819.30694169
 10
319893.708168263
 20
5674818.49710653
 10
319896.973522605
 20
5674828.75501856
 10
319899.13393381
 20
5674834.05393998
 10
319901.64891632
 20
5674833.04414552
 10
319899.216392253
 20
5674825.36570844
  0
LWPOLYLINE
  5
2014B
  8
Gebaeude_Flaechen
100
AcDbEntity
100
AcDbPolyline
 70
0
 90
7
 62
7
370
0
 10
319859.034392998
 20
5674807.0394387
 10
319859.158080663
 20
5674807.35937358
 10
319861.029887318
 20
5674812.02842321
 10
319861.516392132
 20
5674813.2581729
 10
319863.981899576
 20
5674812.26837437
 10
319861.483408754
 20
5674806.01964628
 10
319859.034392998
 20
5674807.0394387
  0
LWPOLYLINE
  5
2014C
  8
Gebaeude_Flaechen
100
AcDbEntity
100
AcDbPolyline
 70
0
 90
5
 62
7
370
0
 10
319936.982359129
 20
5674904.97950328
 10
319935.786711706
 20
5674900.03051064
 10
319931.103072146
 20
5674901.34024404
 10
319932.529603209
 20
5674906.20925297
 10
319936.982359129
 20
5674904.97950328
  0
LWPOLYLINE
  5
2014D
  8
Gebaeude_Flaechen
100
AcDbEntity
100
AcDbPolyline
 70
0
 90
5
 62
7
370
0
 10
319925.108343343
 20
5674902.55999577
 10
319922.634590054
 20
5674896.45123919
 10
319917.299528794
 20
5674898.65079147
 10
319919.740298706
 20
5674904.75954806
 10
319925.108343343
 20
5674902.55999577
  0
LWPOLYLINE
  5
2014E
  8
Gebaeude_Flaechen
100
AcDbEntity
100
AcDbPolyline
 70
0
 90
6
 62
7
370
0
 10
320040.4594592
 20
5674873.29595238
 10
320039.338024376
 20
5674873.7458608
 10
320036.748829267
 20
5674874.78564916
 10
320038.496948258
 20
5674879.21474763
 10
320042.215824035
 20
5674877.72505085
 10
320040.4594592
 20
5674873.29595238
  0
LWPOLYLINE
  5
2014F
  8
Gebaeude_Flaechen
100
AcDbEntity
100
AcDbPolyline
 70
0
 90
5
 62
7
370
0
 10
320037.697101361
 20
5674923.00583408
 10
320039.222582556
 20
5674928.63468834
 10
320046.31400865
 20
5674927.06500784
 10
320045.291523958
 20
5674920.95625126
 10
320037.697101361
 20
5674923.00583408
  0
LWPOLYLINE
  5
20150
  8
Gebaeude_Flaechen
100
AcDbEntity
100
AcDbPolyline
 70
0
 90
7
 62
7
370
0
 10
320026.416786364
 20
5674855.06966229
 10
320027.002241309
 20
5674856.53936313
 10
320029.104931604
 20
5674855.70953204
 10
320029.640911484
 20
5674857.06925528
 10
320037.614642918
 20
5674853.88990242
 10
320036.526191471
 20
5674851.1304641
 10
320026.416786364
 20
5674855.06966229
  0
LWPOLYLINE
  5
20151
  8
Gebaeude_Flaechen
100
AcDbEntity
100
AcDbPolyline
 70
0
 90
6
 62
7
370
0
 10
320029.203881736
 20
5674862.06823775
 10
320030.605675266
 20
5674865.58752141
 10
320031.669389181
 20
5674865.15760892
 10
320040.640867775
 20
5674861.5983334
 10
320039.255565933
 20
5674858.06905177
 10
320029.203881736
 20
5674862.06823775
  0
LWPOLYLINE
  5
20152
  8
Gebaeude_Flaechen
100
AcDbEntity
100
AcDbPolyline
 70
0
 90
11
 62
7
370
0
 10
319866.167048315
 20
5674848.03109497
 10
319869.655040452
 20
5674857.35919626
 10
319878.23071852
 20
5674853.96988614
 10
319879.335661655
 20
5674853.52997569
 10
319876.367157709
 20
5674845.95151826
 10
319875.262214573
 20
5674846.38143075
 10
319875.105543531
 20
5674845.97151419
 10
319874.619038718
 20
5674844.68177671
 10
319873.481112205
 20
5674845.13168513
 10
319867.44515418
 20
5674847.53119672
 10
319866.167048315
 20
5674848.03109497
  0
LWPOLYLINE
  5
20153
  8
Gebaeude_Flaechen
100
AcDbEntity
100
AcDbPolyline
 70
0
 90
9
 62
7
370
0
 10
319899.216392253
 20
5674825.36570844
 10
319901.64891632
 20
5674833.04414552
 10
319899.13393381
 20
5674834.05393998
 10
319900.313089544
 20
5674836.22349837
 10
319904.98848326
 20
5674834.42386468
 10
319904.592682734
 20
5674833.42406819
 10
319903.801081682
 20
5674833.24410482
 10
319900.445023053
 20
5674824.84581426
 10
319899.216392253
 20
5674825.36570844
  0
LWPOLYLINE
  5
20154
  8
Gebaeude_Flaechen
100
AcDbEntity
100
AcDbPolyline
 70
0
 90
8
 62
7
370
0
 10
319882.163986249
 20
5674843.2320718
 10
319880.440604791
 20
5674838.7529835
 10
319876.680499792
 20
5674840.18269249
 10
319876.053815625
 20
5674838.63300792
 10
319872.829690506
 20
5674839.93274336
 10
319874.619038718
 20
5674844.68177671
 10
319875.105543531
 20
5674845.97151419
 10
319882.163986249
 20
5674843.2320718
  0
LWPOLYLINE
  5
20155
  8
Gebaeude_Flaechen
100
AcDbEntity
100
AcDbPolyline
 70
0
 90
5
 62
7
370
0
 10
319924.473413332
 20
5674812.61830314
 10
319921.389467565
 20
5674813.84805283
 10
319923.046882269
 20
5674817.98721031
 10
319926.130828035
 20
5674816.75746063
 10
319924.473413332
 20
5674812.61830314
  0
LWPOLYLINE
  5
20156
  8
Gebaeude_Flaechen
100
AcDbEntity
100
AcDbPolyline
 70
0
 90
7
 62
7
370
0
 10
319915.798785132
 20
5674829.62484151
 10
319919.080631162
 20
5674837.82317276
 10
319919.509415066
 20
5674837.65320736
 10
319927.375950524
 20
5674834.55383822
 10
319924.019891896
 20
5674826.36550494
 10
319916.23581488
 20
5674829.4548761
 10
319915.798785132
 20
5674829.62484151
  0
LWPOLYLINE
  5
20157
  8
Gebaeude_Flaechen
100
AcDbEntity
100
AcDbPolyline
 70
0
 90
7
 62
7
370
0
 10
319897.888811321
 20
5674821.20655503
 10
319899.216392253
 20
5674825.36570844
 10
319900.445023053
 20
5674824.84581426
 10
319902.960005564
 20
5674823.76603405
 10
319902.052962691
 20
5674821.49649601
 10
319901.385049303
 20
5674819.80683993
 10
319897.888811321
 20
5674821.20655503
  0
LWPOLYLINE
  5
20158
  8
Gebaeude_Flaechen
100
AcDbEntity
100
AcDbPolyline
 70
0
 90
12
 62
7
370
0
 10
319969.380281368
 20
5674818.02720217
 10
319965.174900777
 20
5674807.13941835
 10
319955.758146591
 20
5674810.78867556
 10
319947.322647876
 20
5674814.05801009
 10
319947.553531517
 20
5674814.62789409
 10
319948.699703874
 20
5674814.18798363
 10
319949.227437909
 20
5674815.51771297
 10
319948.106003084
 20
5674815.94762547
 10
319951.618732754
 20
5674825.0357756
 10
319969.322560458
 20
5674818.12718182
 10
319969.297822925
 20
5674818.05719607
 10
319969.380281368
 20
5674818.02720217
  0
LWPOLYLINE
  5
20159
  8
Gebaeude_Flaechen
100
AcDbEntity
100
AcDbPolyline
 70
0
 90
5
 62
7
370
0
 10
319955.758146591
 20
5674810.78867556
 10
319949.812892854
 20
5674795.51178512
 10
319941.402131672
 20
5674798.78111966
 10
319947.322647876
 20
5674814.05801009
 10
319955.758146591
 20
5674810.78867556
  0
LWPOLYLINE
  5
2015A
  8
Gebaeude_Flaechen
100
AcDbEntity
100
AcDbPolyline
 70
0
 90
13
 62
7
370
0
 10
319949.227437909
 20
5674815.51771297
 10
319948.699703874
 20
5674814.18798363
 10
319947.553531517
 20
5674814.62789409
 10
319947.322647876
 20
5674814.05801009
 10
319942.746204292
 20
5674815.85764378
 10
319937.806943559
 20
5674817.76725508
 10
319938.821182407
 20
5674820.39671986
 10
319934.475622463
 20
5674822.11636984
 10
319937.773960181
 20
5674830.43467667
 10
319947.025797482
 20
5674826.82541132
 10
319951.618732754
 20
5674825.0357756
 10
319948.106003084
 20
5674815.94762547
 10
319949.227437909
 20
5674815.51771297
  0
LWPOLYLINE
  5
2015B
  8
Gebaeude_Flaechen
100
AcDbEntity
100
AcDbPolyline
 70
0
 90
8
 62
7
370
0
 10
319974.954472112
 20
5674815.95762343
 10
319972.084918297
 20
5674807.97924741
 10
319966.510727553
 20
5674810.1488058
 10
319966.354056512
 20
5674810.19879562
 10
319969.380281368
 20
5674818.02720217
 10
319969.569935787
 20
5674817.93722049
 10
319969.611165008
 20
5674818.0471981
 10
319974.954472112
 20
5674815.95762343
  0
LWPOLYLINE
  5
2015C
  8
Gebaeude_Flaechen
100
AcDbEntity
100
AcDbPolyline
 70
0
 90
7
 62
7
370
0
 10
319882.163986249
 20
5674843.2320718
 10
319875.105543531
 20
5674845.97151419
 10
319875.262214573
 20
5674846.38143075
 10
319876.367157709
 20
5674845.95151826
 10
319879.335661655
 20
5674853.52997569
 10
319885.231440327
 20
5674851.20044986
 10
319882.163986249
 20
5674843.2320718
  0
LWPOLYLINE
  5
2015D
  8
Gebaeude_Flaechen
100
AcDbEntity
100
AcDbPolyline
 70
0
 90
12
 62
7
370
0
 10
319907.082927712
 20
5674825.49568199
 10
319906.604668742
 20
5674825.68564332
 10
319907.767332788
 20
5674828.64504094
 10
319910.430740496
 20
5674827.60525259
 10
319910.100906724
 20
5674826.7754215
 10
319911.32129168
 20
5674826.31551511
 10
319909.903006461
 20
5674822.78623349
 10
319908.484721242
 20
5674823.35611749
 10
319902.984743096
 20
5674809.61891366
 10
319901.137673974
 20
5674810.30877324
 10
319905.054450015
 20
5674820.30673818
 10
319907.082927712
 20
5674825.49568199
  0
LWPOLYLINE
  5
2015E
  8
Gebaeude_Flaechen
100
AcDbEntity
100
AcDbPolyline
 70
0
 90
8
 62
7
370
0
 10
319889.99753833
 20
5674840.18269249
 10
319888.505040513
 20
5674836.28348616
 10
319889.1729539
 20
5674836.02353907
 10
319888.735924153
 20
5674834.89376903
 10
319885.54478241
 20
5674836.12351872
 10
319887.48255582
 20
5674841.16249305
 10
319887.911339723
 20
5674841.00252561
 10
319889.99753833
 20
5674840.18269249
  0
LWPOLYLINE
  5
2015F
  8
Gebaeude_Flaechen
100
AcDbEntity
100
AcDbPolyline
 70
0
 90
11
 62
7
370
0
 10
319968.19287979
 20
5674803.30019981
 10
319965.875797542
 20
5674796.14165691
 10
319961.893054747
 20
5674797.73133334
 10
319962.808343464
 20
5674800.29081236
 10
319965.356309352
 20
5674807.0694326
 10
319965.174900777
 20
5674807.13941835
 10
319966.354056512
 20
5674810.19879562
 10
319966.510727553
 20
5674810.1488058
 10
319967.302328606
 20
5674805.47975617
 10
319966.848807169
 20
5674804.28000038
 10
319968.19287979
 20
5674803.30019981
  0
LWPOLYLINE
  5
20160
  8
Gebaeude_Flaechen
100
AcDbEntity
100
AcDbPolyline
 70
0
 90
9
 62
7
370
0
 10
319906.736602251
 20
5674833.22410889
 10
319906.92625667
 20
5674833.68401527
 10
319910.010202437
 20
5674841.41244218
 10
319918.420963619
 20
5674838.08311985
 10
319919.080631162
 20
5674837.82317276
 10
319915.798785132
 20
5674829.62484151
 10
319915.147363433
 20
5674829.8847886
 10
319912.772560276
 20
5674830.83459527
 10
319906.736602251
 20
5674833.22410889
  0
LWPOLYLINE
  5
20161
  8
Gebaeude_Flaechen
100
AcDbEntity
100
AcDbPolyline
 70
0
 90
16
 62
7
370
0
 10
319879.335661655
 20
5674803.80009806
 10
319879.385136721
 20
5674803.92007364
 10
319879.566545296
 20
5674803.84008992
 10
319886.608496324
 20
5674820.56668527
 10
319885.594257476
 20
5674820.88662015
 10
319889.791392223
 20
5674831.61443653
 10
319892.677437726
 20
5674839.14290413
 10
319897.938286387
 20
5674837.13331318
 10
319891.333365106
 20
5674819.30694169
 10
319891.118973154
 20
5674818.72705972
 10
319889.098741302
 20
5674815.42773129
 10
319885.577765787
 20
5674809.32897267
 10
319883.442092115
 20
5674804.09003904
 10
319883.895613551
 20
5674803.90007771
 10
319883.252437696
 20
5674802.35039314
 10
319879.335661655
 20
5674803.80009806
  0
LWPOLYLINE
  5
20162
  8
Gebaeude_Flaechen
100
AcDbEntity
100
AcDbPolyline
 70
0
 90
10
 62
7
370
0
 10
319886.608496324
 20
5674820.56668527
 10
319879.566545296
 20
5674803.84008992
 10
319873.909896109
 20
5674806.28959133
 10
319870.067332667
 20
5674797.12145748
 10
319866.191785847
 20
5674798.61115425
 10
319869.399419279
 20
5674806.94945702
 10
319869.646794607
 20
5674806.85947533
 10
319876.317682643
 20
5674823.64605847
 10
319876.391895242
 20
5674823.83601981
 10
319886.608496324
 20
5674820.56668527
  0
LWPOLYLINE
  5
20163
  8
Gebaeude_Flaechen
100
AcDbEntity
100
AcDbPolyline
 70
0
 90
6
 62
7
370
0
 10
319884.101759658
 20
5674794.59197235
 10
319879.418120098
 20
5674794.59197235
 10
319880.712717653
 20
5674797.85130892
 10
319884.744935514
 20
5674796.2016447
 10
319884.505806029
 20
5674795.61176477
 10
319884.101759658
 20
5674794.59197235
  0
LWPOLYLINE
  5
20164
  8
Gebaeude_Flaechen
100
AcDbEntity
100
AcDbPolyline
 70
0
 90
7
 62
7
370
0
 10
320055.747254525
 20
5674817.31734666
 10
320056.143055051
 20
5674818.32714112
 10
320056.794476751
 20
5674819.99680127
 10
320057.882928198
 20
5674819.56688877
 10
320057.882928198
 20
5674816.45752168
 10
320057.866436509
 20
5674816.46751964
 10
320055.747254525
 20
5674817.31734666
  0
LWPOLYLINE
  5
20165
  8
Gebaeude_Flaechen
100
AcDbEntity
100
AcDbPolyline
 70
0
 90
5
 62
7
370
0
 10
320012.64622639
 20
5674794.59197235
 10
320004.779690931
 20
5674794.59197235
 10
320007.847145009
 20
5674802.85029139
 10
320014.757162529
 20
5674800.11084899
 10
320012.64622639
 20
5674794.59197235
  0
LWPOLYLINE
  5
20166
  8
Gebaeude_Flaechen
100
AcDbEntity
100
AcDbPolyline
 70
0
 90
4
 62
7
370
0
 10
320056.662543242
 20
5674796.21164267
 10
320057.882928198
 20
5674799.29101587
 10
320057.882928198
 20
5674795.73174035
 10
320056.662543242
 20
5674796.21164267
  0
LWPOLYLINE
  5
20167
  8
Gebaeude_Flaechen
100
AcDbEntity
100
AcDbPolyline
 70
0
 90
12
 62
7
370
0
 10
319988.823982218
 20
5674794.59197235
 10
319984.074375904
 20
5674794.59197235
 10
319985.105106441
 20
5674797.1714473
 10
319987.669564017
 20
5674798.19123973
 10
319987.521138819
 20
5674799.80091208
 10
319986.391458151
 20
5674800.11084899
 10
319986.045132691
 20
5674799.24102604
 10
319985.171073195
 20
5674798.97108099
 10
319982.24379847
 20
5674800.12084696
 10
319986.226541265
 20
5674811.4885331
 10
319994.299222831
 20
5674808.25919042
 10
319988.823982218
 20
5674794.59197235
  0
LWPOLYLINE
  5
20168
  8
Gebaeude_Flaechen
100
AcDbEntity
100
AcDbPolyline
 70
0
 90
14
 62
7
370
0
 10
319980.240058306
 20
5674813.90804062
 10
319977.040670719
 20
5674804.90987217
 10
319974.525688209
 20
5674797.84131095
 10
319973.363024163
 20
5674794.59197235
 10
319970.081178133
 20
5674794.59197235
 10
319967.607424845
 20
5674795.50178716
 10
319965.875797542
 20
5674796.14165691
 10
319968.19287979
 20
5674803.30019981
 10
319966.848807169
 20
5674804.28000038
 10
319967.302328606
 20
5674805.47975617
 10
319966.510727553
 20
5674810.1488058
 10
319972.084918297
 20
5674807.97924741
 10
319974.954472112
 20
5674815.95762343
 10
319980.240058306
 20
5674813.90804062
  0
LWPOLYLINE
  5
20169
  8
Gebaeude_Flaechen
100
AcDbEntity
100
AcDbPolyline
 70
0
 90
6
 62
7
370
0
 10
319985.393710991
 20
5674941.91198578
 10
319989.401191319
 20
5674941.91198578
 10
319993.656046976
 20
5674940.75222185
 10
319992.180040847
 20
5674935.30333096
 10
319984.222801101
 20
5674937.46289138
 10
319985.393710991
 20
5674941.91198578
  0
LWPOLYLINE
  5
2016A
  8
Gebaeude_Flaechen
100
AcDbEntity
100
AcDbPolyline
 70
0
 90
7
 62
7
370
0
 10
320044.491677061
 20
5674916.1272342
 10
320045.291523958
 20
5674920.95625126
 10
320046.31400865
 20
5674927.06500784
 10
320057.882928198
 20
5674925.33535991
 10
320057.882928198
 20
5674913.81770429
 10
320053.059109284
 20
5674914.49756591
 10
320044.491677061
 20
5674916.1272342
  0
LWPOLYLINE
  5
2016B
  8
Gebaeude_Flaechen
100
AcDbEntity
100
AcDbPolyline
 70
0
 90
11
 62
7
370
0
 10
320047.113855547
 20
5674886.30330477
 10
320046.817005152
 20
5674886.41328238
 10
320047.410705942
 20
5674887.95296899
 10
320046.19856683
 20
5674888.4328713
 10
320047.146838924
 20
5674890.88237271
 10
320050.923435612
 20
5674889.37268001
 10
320057.882928198
 20
5674886.58324779
 10
320057.882928198
 20
5674877.8250305
 10
320048.515649077
 20
5674881.61425921
 10
320045.712062017
 20
5674882.74402925
 10
320047.113855547
 20
5674886.30330477
  0
LWPOLYLINE
  5
2016C
  8
Gebaeude_Flaechen
100
AcDbEntity
100
AcDbPolyline
 70
0
 90
11
 62
7
370
0
 10
319857.311011541
 20
5674808.02923723
 10
319857.311011541
 20
5674816.69747284
 10
319859.949681715
 20
5674823.33612156
 10
319859.331243393
 20
5674823.57607272
 10
319860.337236397
 20
5674826.09555988
 10
319865.763001944
 20
5674823.89600759
 10
319863.058365015
 20
5674817.11738736
 10
319861.516392132
 20
5674813.2581729
 10
319861.029887318
 20
5674812.02842321
 10
319859.158080663
 20
5674807.35937358
 10
319857.311011541
 20
5674808.02923723
  0
LWPOLYLINE
  5
2016D
  8
Gebaeude_Flaechen
100
AcDbEntity
100
AcDbPolyline
 70
0
 90
8
 62
7
370
0
 10
320001.753466074
 20
5674794.59197235
 10
319997.036843137
 20
5674794.59197235
 10
319997.605806394
 20
5674796.17165081
 10
319998.817945505
 20
5674795.74173831
 10
319999.05707499
 20
5674796.401604
 10
319999.073566678
 20
5674797.31141881
 10
320002.272954265
 20
5674796.08166912
 10
320001.753466074
 20
5674794.59197235
  0
LWPOLYLINE
  5
2016E
  8
Gebaeude_Flaechen
100
AcDbEntity
100
AcDbPolyline
 70
0
 90
4
 62
7
370
0
 10
320028.437018216
 20
5674794.59197235
 10
320024.784109193
 20
5674794.59197235
 10
320025.254122318
 20
5674795.85171593
 10
320028.437018216
 20
5674794.59197235
  0
LWPOLYLINE
  5
2016F
  8
Gebaeude_Flaechen
100
AcDbEntity
100
AcDbPolyline
 70
0
 90
9
 62
7
370
0
 10
319956.112717896
 20
5674939.62245181
 10
319956.731156218
 20
5674941.91198578
 10
319970.188374109
 20
5674941.91198578
 10
319969.94099878
 20
5674940.96217911
 10
319969.701869296
 20
5674941.0221669
 10
319968.59692616
 20
5674936.81302366
 10
319968.456746807
 20
5674936.31312542
 10
319967.854800173
 20
5674936.47309286
 10
319956.112717896
 20
5674939.62245181
  0
LWPOLYLINE
  5
20170
  8
Gebaeude_Flaechen
100
AcDbEntity
100
AcDbPolyline
 70
0
 90
9
 62
7
370
0
 10
319857.311011541
 20
5674840.58261108
 10
319857.311011541
 20
5674862.23820315
 10
319859.19106404
 20
5674861.49835375
 10
319869.655040452
 20
5674857.35919626
 10
319866.167048315
 20
5674848.03109497
 10
319862.70379371
 20
5674849.3908182
 10
319863.256265278
 20
5674850.79053329
 10
319861.945176035
 20
5674851.3004295
 10
319857.311011541
 20
5674840.58261108
  0
LWPOLYLINE
  5
20171
  8
Gebaeude_Flaechen
100
AcDbEntity
100
AcDbPolyline
 70
0
 90
7
 62
7
370
0
 10
320044.590627192
 20
5674871.6362902
 10
320046.825250997
 20
5674877.31513429
 10
320048.515649077
 20
5674881.61425921
 10
320057.882928198
 20
5674877.8250305
 10
320057.882928198
 20
5674876.0553907
 10
320054.568098791
 20
5674867.61710829
 10
320044.590627192
 20
5674871.6362902
  0
LWPOLYLINE
  5
20172
  8
Gebaeude_Flaechen
100
AcDbEntity
100
AcDbPolyline
 70
0
 90
5
 62
7
370
0
 10
320018.67393857
 20
5674794.59197235
 10
320012.64622639
 20
5674794.59197235
 10
320014.757162529
 20
5674800.11084899
 10
320019.952044436
 20
5674797.9412906
 10
320018.67393857
 20
5674794.59197235
  0
LWPOLYLINE
  5
20173
  8
Gebaeude_Flaechen
100
AcDbEntity
100
AcDbPolyline
 70
0
 90
9
 62
7
370
0
 10
319864.559108677
 20
5674794.59197235
 10
319857.311011541
 20
5674794.59197235
 10
319857.311011541
 20
5674807.51934102
 10
319858.976672088
 20
5674806.88946923
 10
319859.034392998
 20
5674807.0394387
 10
319861.483408754
 20
5674806.01964628
 10
319867.989379904
 20
5674803.32019574
 10
319866.191785847
 20
5674798.61115425
 10
319864.559108677
 20
5674794.59197235
  0
LWPOLYLINE
  5
20174
  8
Gebaeude_Flaechen
100
AcDbEntity
100
AcDbPolyline
 70
0
 90
7
 62
7
370
0
 10
319997.036843137
 20
5674794.59197235
 10
319988.823982218
 20
5674794.59197235
 10
319994.299222831
 20
5674808.25919042
 10
320001.316436327
 20
5674805.45976024
 10
319998.11704874
 20
5674797.61135776
 10
319997.605806394
 20
5674796.17165081
 10
319997.036843137
 20
5674794.59197235
  0
LWPOLYLINE
  5
20175
  8
Gebaeude_Flaechen
100
AcDbEntity
100
AcDbPolyline
 70
0
 90
13
 62
7
370
0
 10
319967.830062641
 20
5674936.41310507
 10
319967.854800173
 20
5674936.47309286
 10
319968.456746807
 20
5674936.31312542
 10
319968.59692616
 20
5674936.81302366
 10
319969.701869296
 20
5674941.0221669
 10
319969.94099878
 20
5674940.96217911
 10
319970.188374109
 20
5674941.91198578
 10
319985.286515015
 20
5674941.91198578
 10
319983.027153678
 20
5674933.36372576
 10
319982.788024194
 20
5674932.47390688
 10
319971.062433605
 20
5674935.61326787
 10
319971.045941916
 20
5674935.54328211
 10
319967.830062641
 20
5674936.41310507
  0
LWPOLYLINE
  5
20176
  8
Gebaeude_Flaechen
100
AcDbEntity
100
AcDbPolyline
 70
0
 90
6
 62
7
370
0
 10
319888.529778045
 20
5674794.59197235
 10
319884.101759658
 20
5674794.59197235
 10
319884.505806029
 20
5674795.61176477
 10
319884.744935514
 20
5674796.2016447
 10
319888.562761423
 20
5674794.68195403
 10
319888.529778045
 20
5674794.59197235
  0
LWPOLYLINE
  5
20177
  8
Gebaeude_Flaechen
100
AcDbEntity
100
AcDbPolyline
 70
0
 90
7
 62
7
370
0
 10
320050.832731325
 20
5674798.5111746
 10
320054.287740085
 20
5674807.31938172
 10
320057.09957299
 20
5674806.20960761
 10
320057.882928198
 20
5674805.8996707
 10
320057.882928198
 20
5674799.29101587
 10
320056.662543242
 20
5674796.21164267
 10
320050.832731325
 20
5674798.5111746
  0
LWPOLYLINE
  5
20178
  8
Gebaeude_Flaechen
100
AcDbEntity
100
AcDbPolyline
 70
0
 90
7
 62
7
370
0
 10
320050.923435612
 20
5674889.37268001
 10
320052.382950052
 20
5674893.13191483
 10
320053.191042793
 20
5674895.18149764
 10
320054.782490742
 20
5674899.25066937
 10
320057.882928198
 20
5674898.82075688
 10
320057.882928198
 20
5674886.58324779
 10
320050.923435612
 20
5674889.37268001
  0
LWPOLYLINE
  5
20179
  8
Gebaeude_Flaechen
100
AcDbEntity
100
AcDbPolyline
 70
0
 90
9
 62
7
370
0
 10
320057.882928198
 20
5674835.65361437
 10
320057.882928198
 20
5674819.56688877
 10
320056.794476751
 20
5674819.99680127
 10
320052.613833693
 20
5674821.66646141
 10
320052.572604471
 20
5674821.67645938
 10
320052.415933429
 20
5674821.74644513
 10
320055.879188034
 20
5674830.55465225
 10
320057.223260654
 20
5674833.97395626
 10
320057.882928198
 20
5674835.65361437
  0
LWPOLYLINE
  5
2017A
  8
Gebaeude_Flaechen
100
AcDbEntity
100
AcDbPolyline
 70
0
 90
5
 62
7
370
0
 10
319864.559108677
 20
5674794.59197235
 10
319866.191785847
 20
5674798.61115425
 10
319870.067332667
 20
5674797.12145748
 10
319869.061339662
 20
5674794.59197235
 10
319864.559108677
 20
5674794.59197235
  0
LWPOLYLINE
  5
2017B
  8
Gebaeude_Flaechen
100
AcDbEntity
100
AcDbPolyline
 70
0
 90
4
 62
7
370
0
 10
320057.09957299
 20
5674806.20960761
 10
320057.882928198
 20
5674808.23919449
 10
320057.882928198
 20
5674805.8996707
 10
320057.09957299
 20
5674806.20960761
  0
LWPOLYLINE
  5
2017C
  8
Gebaeude_Flaechen
100
AcDbEntity
100
AcDbPolyline
 70
0
 90
11
 62
7
370
0
 10
320004.779690931
 20
5674794.59197235
 10
320001.753466074
 20
5674794.59197235
 10
320002.272954265
 20
5674796.08166912
 10
319999.073566678
 20
5674797.31141881
 10
319999.05707499
 20
5674796.401604
 10
319998.817945505
 20
5674795.74173831
 10
319997.605806394
 20
5674796.17165081
 10
319998.11704874
 20
5674797.61135776
 10
320001.316436327
 20
5674805.45976024
 10
320007.847145009
 20
5674802.85029139
 10
320004.779690931
 20
5674794.59197235
  0
LWPOLYLINE
  5
2017D
  8
Gebaeude_Flaechen
100
AcDbEntity
100
AcDbPolyline
 70
0
 90
5
 62
7
370
0
 10
320025.254122318
 20
5674795.85171593
 10
320024.784109193
 20
5674794.59197235
 10
320018.67393857
 20
5674794.59197235
 10
320019.952044436
 20
5674797.9412906
 10
320025.254122318
 20
5674795.85171593
  0
LWPOLYLINE
  5
2017E
  8
Gebaeude_Flaechen_DES_4300
100
AcDbEntity
100
AcDbPolyline
 70
0
 90
7
 62
7
370
0
 10
319891.333365106
 20
5674819.30694169
 10
319897.938286387
 20
5674837.13331318
 10
319900.313089544
 20
5674836.22349837
 10
319899.13393381
 20
5674834.05393998
 10
319896.973522605
 20
5674828.75501856
 10
319893.708168263
 20
5674818.49710653
 10
319891.333365106
 20
5674819.30694169
  0
LWPOLYLINE
  5
2017F
  8
Gebaeude_Flaechen_DES_4300
100
AcDbEntity
100
AcDbPolyline
 70
0
 90
6
 62
7
370
0
 10
319897.105456113
 20
5674909.69854274
 10
319895.629449984
 20
5674906.36922041
 10
319890.690189251
 20
5674908.22884189
 10
319887.532030886
 20
5674909.72853663
 10
319892.660946038
 20
5674914.36759237
 10
319897.105456113
 20
5674909.69854274
  0
LWPOLYLINE
  5
20180
  8
Gebaeude_Flaechen_DES_4300
100
AcDbEntity
100
AcDbPolyline
 70
0
 90
7
 62
7
370
0
 10
319883.466829648
 20
5674836.91335795
 10
319884.48931434
 20
5674839.57281663
 10
319883.862630174
 20
5674840.62260295
 10
319884.637739538
 20
5674842.2622692
 10
319887.48255582
 20
5674841.16249305
 10
319885.54478241
 20
5674836.12351872
 10
319883.466829648
 20
5674836.91335795
  0
LWPOLYLINE
  5
20181
  8
Gebaeude_Flaechen_DES_4300
100
AcDbEntity
100
AcDbPolyline
 70
0
 90
7
 62
7
370
0
 10
319934.73948948
 20
5674864.54773305
 10
319936.157774699
 20
5674868.17699433
 10
319936.932884063
 20
5674870.17658732
 10
319943.257446638
 20
5674867.69709201
 10
319941.006331145
 20
5674861.92826624
 10
319938.458365258
 20
5674862.99804849
 10
319934.73948948
 20
5674864.54773305
  0
LWPOLYLINE
  5
20182
  8
Gebaeude_Flaechen_DES_4300
100
AcDbEntity
100
AcDbPolyline
 70
0
 90
12
 62
7
370
0
 10
320034.753334947
 20
5674829.40488628
 10
320031.108671768
 20
5674830.8545912
 10
320031.009721637
 20
5674830.59464411
 10
320030.828313062
 20
5674830.66462986
 10
320025.52623518
 20
5674832.73420861
 10
320025.35307245
 20
5674832.80419436
 10
320027.282600015
 20
5674837.67320329
 10
320031.273588654
 20
5674836.09352483
 10
320032.906265825
 20
5674835.45365507
 10
320040.706834529
 20
5674832.3642839
 10
320038.900994628
 20
5674827.76522003
 10
320034.753334947
 20
5674829.40488628
  0
LWPOLYLINE
  5
20183
  8
Gebaeude_Flaechen_DES_4300
100
AcDbEntity
100
AcDbPolyline
 70
0
 90
10
 62
7
370
0
 10
319883.161733409
 20
5674874.17577329
 10
319887.235180491
 20
5674884.52366701
 10
319887.48255582
 20
5674885.13354287
 10
319891.93531174
 20
5674883.36390308
 10
319891.762149009
 20
5674882.94398855
 10
319890.82212276
 20
5674883.32391122
 10
319887.317638934
 20
5674874.79564712
 10
319888.150469208
 20
5674874.45571631
 10
319887.342376467
 20
5674872.46612129
 10
319883.161733409
 20
5674874.17577329
  0
LWPOLYLINE
  5
20184
  8
Gebaeude_Flaechen_DES_4300
100
AcDbEntity
100
AcDbPolyline
 70
0
 90
7
 62
7
370
0
 10
320014.781900062
 20
5674822.73624366
 10
320021.667180049
 20
5674839.88275354
 10
320023.926541387
 20
5674838.99293466
 10
320021.279625367
 20
5674832.68421878
 10
320022.343339282
 20
5674832.23431036
 10
320017.84935414
 20
5674821.49649601
 10
320014.781900062
 20
5674822.73624366
  0
LWPOLYLINE
  5
20185
  8
Gebaeude_Flaechen_DES_4300
100
AcDbEntity
100
AcDbPolyline
 70
0
 90
6
 62
7
370
0
 10
320033.986471428
 20
5674870.99642044
 10
320035.668623664
 20
5674875.22555961
 10
320036.748829267
 20
5674874.78564916
 10
320039.338024376
 20
5674873.7458608
 10
320037.664117984
 20
5674869.51672163
 10
320033.986471428
 20
5674870.99642044
  0
LWPOLYLINE
  5
20186
  8
Gebaeude_Flaechen_DES_4300
100
AcDbEntity
100
AcDbPolyline
 70
0
 90
14
 62
7
370
0
 10
319933.230499974
 20
5674864.72769642
 10
319928.934415096
 20
5674866.57731994
 10
319928.65405639
 20
5674866.64730569
 10
319929.726016148
 20
5674869.41674198
 10
319930.146554208
 20
5674870.49652219
 10
319930.410421225
 20
5674870.39654255
 10
319936.157774699
 20
5674868.17699433
 10
319934.73948948
 20
5674864.54773305
 10
319938.458365258
 20
5674862.99804849
 10
319934.879668834
 20
5674853.70993906
 10
319929.363198999
 20
5674855.9494832
 10
319931.383430852
 20
5674857.49916777
 10
319933.321204262
 20
5674864.23779614
 10
319933.230499974
 20
5674864.72769642
  0
LWPOLYLINE
  5
20187
  8
Gebaeude_Flaechen_DES_4300
100
AcDbEntity
100
AcDbPolyline
 70
0
 90
5
 62
7
370
0
 10
319936.982359129
 20
5674904.97950328
 10
319935.786711706
 20
5674900.03051064
 10
319931.103072146
 20
5674901.34024404
 10
319932.529603209
 20
5674906.20925297
 10
319936.982359129
 20
5674904.97950328
  0
LWPOLYLINE
  5
20188
  8
Gebaeude_Flaechen_DES_4300
100
AcDbEntity
100
AcDbPolyline
 70
0
 90
5
 62
7
370
0
 10
319925.108343343
 20
5674902.55999577
 10
319922.634590054
 20
5674896.45123919
 10
319917.299528794
 20
5674898.65079147
 10
319919.740298706
 20
5674904.75954806
 10
319925.108343343
 20
5674902.55999577
  0
LWPOLYLINE
  5
20189
  8
Gebaeude_Flaechen_DES_4300
100
AcDbEntity
100
AcDbPolyline
 70
0
 90
6
 62
7
370
0
 10
320040.4594592
 20
5674873.29595238
 10
320039.338024376
 20
5674873.7458608
 10
320036.748829267
 20
5674874.78564916
 10
320038.496948258
 20
5674879.21474763
 10
320042.215824035
 20
5674877.72505085
 10
320040.4594592
 20
5674873.29595238
  0
LWPOLYLINE
  5
2018A
  8
Gebaeude_Flaechen_DES_4300
100
AcDbEntity
100
AcDbPolyline
 70
0
 90
5
 62
7
370
0
 10
320037.697101361
 20
5674923.00583408
 10
320039.222582556
 20
5674928.63468834
 10
320046.31400865
 20
5674927.06500784
 10
320045.291523958
 20
5674920.95625126
 10
320037.697101361
 20
5674923.00583408
  0
LWPOLYLINE
  5
2018B
  8
Gebaeude_Flaechen_DES_4300
100
AcDbEntity
100
AcDbPolyline
 70
0
 90
7
 62
7
370
0
 10
320026.416786364
 20
5674855.06966229
 10
320027.002241309
 20
5674856.53936313
 10
320029.104931604
 20
5674855.70953204
 10
320029.640911484
 20
5674857.06925528
 10
320037.614642918
 20
5674853.88990242
 10
320036.526191471
 20
5674851.1304641
 10
320026.416786364
 20
5674855.06966229
  0
LWPOLYLINE
  5
2018C
  8
Gebaeude_Flaechen_DES_4300
100
AcDbEntity
100
AcDbPolyline
 70
0
 90
6
 62
7
370
0
 10
320029.203881736
 20
5674862.06823775
 10
320030.605675266
 20
5674865.58752141
 10
320031.669389181
 20
5674865.15760892
 10
320040.640867775
 20
5674861.5983334
 10
320039.255565933
 20
5674858.06905177
 10
320029.203881736
 20
5674862.06823775
  0
LWPOLYLINE
  5
2018D
  8
Gebaeude_Flaechen_DES_4300
100
AcDbEntity
100
AcDbPolyline
 70
0
 90
9
 62
7
370
0
 10
319899.216392253
 20
5674825.36570844
 10
319901.64891632
 20
5674833.04414552
 10
319899.13393381
 20
5674834.05393998
 10
319900.313089544
 20
5674836.22349837
 10
319904.98848326
 20
5674834.42386468
 10
319904.592682734
 20
5674833.42406819
 10
319903.801081682
 20
5674833.24410482
 10
319900.445023053
 20
5674824.84581426
 10
319899.216392253
 20
5674825.36570844
  0
LWPOLYLINE
  5
2018E
  8
Gebaeude_Flaechen_DES_4300
100
AcDbEntity
100
AcDbPolyline
 70
0
 90
12
 62
7
370
0
 10
319907.082927712
 20
5674825.49568199
 10
319906.604668742
 20
5674825.68564332
 10
319907.767332788
 20
5674828.64504094
 10
319910.430740496
 20
5674827.60525259
 10
319910.100906724
 20
5674826.7754215
 10
319911.32129168
 20
5674826.31551511
 10
319909.903006461
 20
5674822.78623349
 10
319908.484721242
 20
5674823.35611749
 10
319902.984743096
 20
5674809.61891366
 10
319901.137673974
 20
5674810.30877324
 10
319905.054450015
 20
5674820.30673818
 10
319907.082927712
 20
5674825.49568199
  0
LWPOLYLINE
  5
2018F
  8
Gebaeude_Flaechen_DES_4300
100
AcDbEntity
100
AcDbPolyline
 70
0
 90
8
 62
7
370
0
 10
319889.99753833
 20
5674840.18269249
 10
319888.505040513
 20
5674836.28348616
 10
319889.1729539
 20
5674836.02353907
 10
319888.735924153
 20
5674834.89376903
 10
319885.54478241
 20
5674836.12351872
 10
319887.48255582
 20
5674841.16249305
 10
319887.911339723
 20
5674841.00252561
 10
319889.99753833
 20
5674840.18269249
  0
LWPOLYLINE
  5
20190
  8
Gebaeude_Flaechen_DES_4300
100
AcDbEntity
100
AcDbPolyline
 70
0
 90
8
 62
7
370
0
 10
320001.753466074
 20
5674794.59197235
 10
319997.036843137
 20
5674794.59197235
 10
319997.605806394
 20
5674796.17165081
 10
319998.817945505
 20
5674795.74173831
 10
319999.05707499
 20
5674796.401604
 10
319999.073566678
 20
5674797.31141881
 10
320002.272954265
 20
5674796.08166912
 10
320001.753466074
 20
5674794.59197235
  0
POINT
  5
20191
  8
BP_Umringe_Beschriftung
100
AcDbEntity
100
AcDbPoint
 10
320011.079515973
 20
5674917.75690248
  0
POINT
  5
20192
  8
BP_Umringe_Beschriftung
100
AcDbEntity
100
AcDbPoint
 10
319992.353203577
 20
5674816.20757255
  0
LWPOLYLINE
  5
20193
  8
BP_Aenderungen
100
AcDbEntity
100
AcDbPolyline
 70
0
 90
55
 62
7
370
0
 10
319857.311011541
 20
5674794.59197235
 10
319857.311011541
 20
5674902.48001205
 10
319877.851409682
 20
5674900.47042109
 10
319885.536536566
 20
5674910.22843488
 10
319887.30939309
 20
5674909.5385753
 10
319890.70668094
 20
5674908.26883375
 10
319895.843841936
 20
5674906.33922652
 10
319898.028990674
 20
5674905.51939339
 10
319902.613680103
 20
5674903.79974342
 10
319909.119651253
 20
5674901.36023997
 10
319915.402984606
 20
5674899.00072025
 10
319915.955456174
 20
5674898.79076298
 10
319917.52216659
 20
5674898.21088102
 10
319918.849747522
 20
5674897.71098277
 10
319921.067879638
 20
5674896.88115168
 10
319922.873719538
 20
5674896.20129006
 10
319925.553618935
 20
5674902.98990826
 10
319928.266501708
 20
5674901.94012194
 10
319935.984611969
 20
5674898.93073449
 10
319936.537083537
 20
5674898.72077723
 10
319935.992857813
 20
5674896.44124122
 10
319940.008583986
 20
5674895.31147118
 10
319943.224463261
 20
5674894.40165637
 10
319943.422363524
 20
5674894.35166655
 10
319948.856374915
 20
5674892.82197791
 10
319948.716195562
 20
5674887.47306667
 10
319959.996510559
 20
5674884.87359578
 10
319967.846554329
 20
5674883.06396413
 10
319978.02192619
 20
5674880.71444237
 10
319985.5256445
 20
5674878.98479443
 10
319989.32697872
 20
5674878.09497555
 10
319999.320942007
 20
5674875.79544361
 10
320004.598282357
 20
5674873.92582417
 10
320013.239927179
 20
5674870.31655883
 10
320021.411558876
 20
5674866.90725278
 10
320024.858321792
 20
5674865.46754583
 10
320025.064467899
 20
5674865.37756414
 10
320023.753378656
 20
5674862.08823368
 10
320021.675425894
 20
5674856.81930615
 10
320019.119214162
 20
5674850.37061876
 10
320015.829122288
 20
5674842.05231193
 10
320021.609459139
 20
5674839.79277185
 10
320027.241370794
 20
5674837.59321957
 10
320031.224113589
 20
5674836.03353704
 10
320032.848544915
 20
5674835.39366728
 10
320040.649113619
 20
5674832.34428797
 10
320041.34176454
 20
5674834.11392777
 10
320043.889730427
 20
5674840.62260295
 10
320046.454188003
 20
5674847.20126388
 10
320050.527635086
 20
5674857.61914335
 10
320051.319236138
 20
5674859.63873227
 10
320054.427919438
 20
5674867.60711033
 10
320057.882928198
 20
5674876.4553093
 10
320057.882928198
 20
5674794.59197235
 10
319857.311011541
 20
5674794.59197235
  0
LWPOLYLINE
  5
20194
  8
BP_Umringe
100
AcDbEntity
100
AcDbPolyline
 70
0
 90
11
 62
7
370
0
 10
319857.311011541
 20
5674875.20556368
 10
319857.311011541
 20
5674919.83647919
 10
319885.536536566
 20
5674910.22843488
 10
319887.30939309
 20
5674909.5385753
 10
319880.160246085
 20
5674902.79994693
 10
319878.148260077
 20
5674899.89053913
 10
319873.365670385
 20
5674892.90196163
 10
319868.517113939
 20
5674884.0137708
 10
319865.185792843
 20
5674875.57548839
 10
319864.559108677
 20
5674872.29615588
 10
319857.311011541
 20
5674875.20556368
  0
LWPOLYLINE
  5
20195
  8
BP_Umringe
100
AcDbEntity
100
AcDbPolyline
 70
0
 90
16
 62
7
370
0
 10
320057.882928198
 20
5674876.4553093
 10
320057.882928198
 20
5674835.25369577
 10
320052.564358627
 20
5674821.68645734
 10
320051.912936927
 20
5674820.00679923
 10
320045.695570328
 20
5674804.04004922
 10
320031.694126713
 20
5674809.39895843
 10
320033.912258829
 20
5674815.07780252
 10
320038.859765407
 20
5674827.75522206
 10
320040.649113619
 20
5674832.34428797
 10
320041.34176454
 20
5674834.11392777
 10
320043.889730427
 20
5674840.62260295
 10
320046.454188003
 20
5674847.20126388
 10
320050.527635086
 20
5674857.61914335
 10
320051.319236138
 20
5674859.63873227
 10
320054.427919438
 20
5674867.60711033
 10
320057.882928198
 20
5674876.4553093
  0
LWPOLYLINE
  5
20196
  8
BP_Umringe
100
AcDbEntity
100
AcDbPolyline
 70
0
 90
12
 62
7
370
0
 10
320057.882928198
 20
5674915.44737258
 10
320057.882928198
 20
5674899.51061646
 10
319950.736427415
 20
5674925.33535991
 10
319950.546772996
 20
5674925.3953477
 10
319943.133758974
 20
5674927.09500174
 10
319934.384918176
 20
5674929.21457031
 10
319915.823522665
 20
5674933.73365046
 10
319951.569257689
 20
5674940.89219336
 10
319968.59692616
 20
5674936.82302163
 10
319983.018907834
 20
5674933.35372779
 10
319987.133584138
 20
5674932.38392519
 10
320057.882928198
 20
5674915.44737258
  0
LWPOLYLINE
  5
20197
  8
BP_Umringe
100
AcDbEntity
100
AcDbPolyline
 70
0
 90
59
 62
7
370
0
 10
319857.311011541
 20
5674862.11822757
 10
319857.311011541
 20
5674862.78809122
 10
319864.559108677
 20
5674872.29615588
 10
319865.185792843
 20
5674875.57548839
 10
319868.517113939
 20
5674884.0137708
 10
319873.365670385
 20
5674892.90196163
 10
319878.148260077
 20
5674899.89053913
 10
319880.160246085
 20
5674902.79994693
 10
319887.30939309
 20
5674909.5385753
 10
319880.671488431
 20
5674902.28005275
 10
319878.832665153
 20
5674899.58060221
 10
319874.00884624
 20
5674892.46205118
 10
319869.308714991
 20
5674883.8138115
 10
319865.828968698
 20
5674875.36553112
 10
319887.523785041
 20
5674866.22739116
 10
319894.029756191
 20
5674863.58792842
 10
319900.346072922
 20
5674861.01845143
 10
319907.676628501
 20
5674858.03905788
 10
319955.980784387
 20
5674839.47283698
 10
319962.519738914
 20
5674836.85337016
 10
319985.707053074
 20
5674827.5452648
 10
319991.701781878
 20
5674825.18574507
 10
320006.791676939
 20
5674819.23695593
 10
320031.694126713
 20
5674809.39895843
 10
320045.695570328
 20
5674804.04004922
 10
320057.882928198
 20
5674798.75112576
 10
320057.882928198
 20
5674794.59197235
 10
320028.362805618
 20
5674794.59197235
 10
320025.146926342
 20
5674795.86171389
 10
320019.836602616
 20
5674797.95128857
 10
320014.732424996
 20
5674799.97087749
 10
320007.822407476
 20
5674802.69032395
 10
320001.28345295
 20
5674805.26979891
 10
319994.266239454
 20
5674808.04923316
 10
319986.201803732
 20
5674811.23858398
 10
319980.198829085
 20
5674813.5981037
 10
319975.012193022
 20
5674815.64768652
 10
319969.734852673
 20
5674817.71726526
 10
319965.216129999
 20
5674819.50690098
 10
319959.11420522
 20
5674821.91641054
 10
319950.3241352
 20
5674825.38570437
 10
319943.793426518
 20
5674827.96517933
 10
319937.510093164
 20
5674830.43467667
 10
319932.513111521
 20
5674832.40427576
 10
319927.342967147
 20
5674834.45385857
 10
319919.484677533
 20
5674837.55322771
 10
319919.055893629
 20
5674837.73319108
 10
319918.396226086
 20
5674837.9831402
 10
319909.968973215
 20
5674841.31246253
 10
319903.421772844
 20
5674843.90193545
 10
319895.67892505
 20
5674846.96131272
 10
319890.962302113
 20
5674848.83093216
 10
319890.492288988
 20
5674849.01089553
 10
319885.19845695
 20
5674851.10047021
 10
319879.302678278
 20
5674853.42999604
 10
319878.197735142
 20
5674853.85990853
 10
319869.630302919
 20
5674857.25921661
 10
319859.166326507
 20
5674861.38837613
 10
319857.311011541
 20
5674862.11822757
  0
LWPOLYLINE
  5
20198
  8
Strassenbasisdaten_L
100
AcDbEntity
100
AcDbPolyline
 70
0
 90
3
 62
3
370
0
 10
319857.311011541
 20
5674893.90175813
 10
319859.908452494
 20
5674900.46042313
 10
319876.169257446
 20
5674918.14682311
  0
LWPOLYLINE
  5
20199
  8
Strassenbasisdaten_L
100
AcDbEntity
100
AcDbPolyline
 70
0
 90
2
 62
3
370
0
 10
320057.882928198
 20
5674855.3795992
 10
320035.173873006
 20
5674797.67134555
  0
LWPOLYLINE
  5
2019A
  8
Strassenbasisdaten_L
100
AcDbEntity
100
AcDbPolyline
 70
0
 90
2
 62
3
370
0
 10
319876.169257446
 20
5674918.14682311
 10
319911.675862984
 20
5674941.91198578
  0
LWPOLYLINE
  5
2019B
  8
Strassenbasisdaten_L
100
AcDbEntity
100
AcDbPolyline
 70
0
 90
2
 62
3
370
0
 10
320042.520920274
 20
5674794.59197235
 10
320035.173873006
 20
5674797.67134555
  0
LWPOLYLINE
  5
2019C
  8
Strassenbasisdaten_L
100
AcDbEntity
100
AcDbPolyline
 70
0
 90
3
 62
3
370
0
 10
319857.311011541
 20
5674868.63690072
 10
319920.045394945
 20
5674843.27206365
 10
320035.173873006
 20
5674797.67134555
  0
LWPOLYLINE
  5
2019D
  8
Strassenbasisdaten_L
100
AcDbEntity
100
AcDbPolyline
 70
0
 90
4
 62
3
370
0
 10
319932.917157891
 20
5674941.91198578
 10
319944.024310158
 20
5674934.74344492
 10
320038.925732161
 20
5674908.72874014
 10
320057.882928198
 20
5674906.14926518
  0
LWPOLYLINE
  5
2019E
  8
Strassenbasisdaten_L
100
AcDbEntity
100
AcDbPolyline
 70
0
 90
6
 62
3
370
0
 10
319876.169257446
 20
5674918.14682311
 10
319878.741960866
 20
5674925.58530903
 10
319880.91886376
 20
5674930.60428743
 10
319884.035792904
 20
5674935.37331671
 10
319888.084502453
 20
5674939.3125149
 10
319890.99528549
 20
5674941.91198578
  0
LWPOLYLINE
  5
2019F
  8
Eigentuemer
100
AcDbEntity
100
AcDbPolyline
 70
0
 90
10
 62
7
370
0
 10
320017.033015555
 20
5674811.81846594
 10
320011.318645458
 20
5674814.09800195
 10
320014.781900062
 20
5674822.73624366
 10
320021.667180049
 20
5674839.88275354
 10
320023.926541387
 20
5674838.99293466
 10
320027.282600015
 20
5674837.67320329
 10
320025.35307245
 20
5674832.80419436
 10
320024.685159062
 20
5674831.11453828
 10
320020.455040938
 20
5674820.45670765
 10
320017.033015555
 20
5674811.81846594
  0
LWPOLYLINE
  5
201A0
  8
Eigentuemer
100
AcDbEntity
100
AcDbPolyline
 70
0
 90
10
 62
7
370
0
 10
320017.033015555
 20
5674811.81846594
 10
320011.318645458
 20
5674814.09800195
 10
320014.781900062
 20
5674822.73624366
 10
320021.667180049
 20
5674839.88275354
 10
320023.926541387
 20
5674838.99293466
 10
320027.282600015
 20
5674837.67320329
 10
320025.35307245
 20
5674832.80419436
 10
320024.685159062
 20
5674831.11453828
 10
320020.455040938
 20
5674820.45670765
 10
320017.033015555
 20
5674811.81846594
  0
LWPOLYLINE
  5
201A1
  8
Eigentuemer
100
AcDbEntity
100
AcDbPolyline
 70
0
 90
10
 62
7
370
0
 10
319970.542945414
 20
5674830.33469702
 10
319989.607337426
 20
5674877.92501015
 10
319999.048829145
 20
5674875.79544361
 10
319988.601344422
 20
5674849.33083041
 10
319986.539883348
 20
5674844.11189271
 10
319983.571379402
 20
5674836.60342104
 10
319983.365233294
 20
5674836.08352686
 10
319979.753553493
 20
5674826.93538894
 10
319979.646357517
 20
5674826.65544592
 10
319970.542945414
 20
5674830.33469702
  0
LWPOLYLINE
  5
201A2
  8
Eigentuemer
100
AcDbEntity
100
AcDbPolyline
 70
0
 90
10
 62
7
370
0
 10
319970.542945414
 20
5674830.33469702
 10
319989.607337426
 20
5674877.92501015
 10
319999.048829145
 20
5674875.79544361
 10
319988.601344422
 20
5674849.33083041
 10
319986.539883348
 20
5674844.11189271
 10
319983.571379402
 20
5674836.60342104
 10
319983.365233294
 20
5674836.08352686
 10
319979.753553493
 20
5674826.93538894
 10
319979.646357517
 20
5674826.65544592
 10
319970.542945414
 20
5674830.33469702
  0
LWPOLYLINE
  5
201A3
  8
Eigentuemer
100
AcDbEntity
100
AcDbPolyline
 70
0
 90
15
 62
7
370
0
 10
320030.003728633
 20
5674877.50509562
 10
320035.668623664
 20
5674875.22555961
 10
320036.748829267
 20
5674874.78564916
 10
320039.338024376
 20
5674873.7458608
 10
320040.4594592
 20
5674873.29595238
 10
320044.590627192
 20
5674871.6362902
 10
320054.568098791
 20
5674867.61710829
 10
320051.434677958
 20
5674859.6587282
 10
320050.643076906
 20
5674857.62914131
 10
320040.640867775
 20
5674861.5983334
 10
320031.669389181
 20
5674865.15760892
 10
320030.605675266
 20
5674865.58752141
 10
320025.979756616
 20
5674867.41714899
 10
320027.595942098
 20
5674871.45632683
 10
320030.003728633
 20
5674877.50509562
  0
LWPOLYLINE
  5
201A4
  8
Eigentuemer
100
AcDbEntity
100
AcDbPolyline
 70
0
 90
15
 62
7
370
0
 10
320030.003728633
 20
5674877.50509562
 10
320035.668623664
 20
5674875.22555961
 10
320036.748829267
 20
5674874.78564916
 10
320039.338024376
 20
5674873.7458608
 10
320040.4594592
 20
5674873.29595238
 10
320044.590627192
 20
5674871.6362902
 10
320054.568098791
 20
5674867.61710829
 10
320051.434677958
 20
5674859.6587282
 10
320050.643076906
 20
5674857.62914131
 10
320040.640867775
 20
5674861.5983334
 10
320031.669389181
 20
5674865.15760892
 10
320030.605675266
 20
5674865.58752141
 10
320025.979756616
 20
5674867.41714899
 10
320027.595942098
 20
5674871.45632683
 10
320030.003728633
 20
5674877.50509562
  0
LWPOLYLINE
  5
201A5
  8
Eigentuemer
100
AcDbEntity
100
AcDbPolyline
 70
0
 90
15
 62
7
370
0
 10
320030.003728633
 20
5674877.50509562
 10
320035.668623664
 20
5674875.22555961
 10
320036.748829267
 20
5674874.78564916
 10
320039.338024376
 20
5674873.7458608
 10
320040.4594592
 20
5674873.29595238
 10
320044.590627192
 20
5674871.6362902
 10
320054.568098791
 20
5674867.61710829
 10
320051.434677958
 20
5674859.6587282
 10
320050.643076906
 20
5674857.62914131
 10
320040.640867775
 20
5674861.5983334
 10
320031.669389181
 20
5674865.15760892
 10
320030.605675266
 20
5674865.58752141
 10
320025.979756616
 20
5674867.41714899
 10
320027.595942098
 20
5674871.45632683
 10
320030.003728633
 20
5674877.50509562
  0
LWPOLYLINE
  5
201A6
  8
Eigentuemer
100
AcDbEntity
100
AcDbPolyline
 70
0
 90
15
 62
7
370
0
 10
320030.003728633
 20
5674877.50509562
 10
320035.668623664
 20
5674875.22555961
 10
320036.748829267
 20
5674874.78564916
 10
320039.338024376
 20
5674873.7458608
 10
320040.4594592
 20
5674873.29595238
 10
320044.590627192
 20
5674871.6362902
 10
320054.568098791
 20
5674867.61710829
 10
320051.434677958
 20
5674859.6587282
 10
320050.643076906
 20
5674857.62914131
 10
320040.640867775
 20
5674861.5983334
 10
320031.669389181
 20
5674865.15760892
 10
320030.605675266
 20
5674865.58752141
 10
320025.979756616
 20
5674867.41714899
 10
320027.595942098
 20
5674871.45632683
 10
320030.003728633
 20
5674877.50509562
  0
LWPOLYLINE
  5
201A7
  8
Eigentuemer
100
AcDbEntity
100
AcDbPolyline
 70
0
 90
15
 62
7
370
0
 10
320030.003728633
 20
5674877.50509562
 10
320035.668623664
 20
5674875.22555961
 10
320036.748829267
 20
5674874.78564916
 10
320039.338024376
 20
5674873.7458608
 10
320040.4594592
 20
5674873.29595238
 10
320044.590627192
 20
5674871.6362902
 10
320054.568098791
 20
5674867.61710829
 10
320051.434677958
 20
5674859.6587282
 10
320050.643076906
 20
5674857.62914131
 10
320040.640867775
 20
5674861.5983334
 10
320031.669389181
 20
5674865.15760892
 10
320030.605675266
 20
5674865.58752141
 10
320025.979756616
 20
5674867.41714899
 10
320027.595942098
 20
5674871.45632683
 10
320030.003728633
 20
5674877.50509562
  0
LWPOLYLINE
  5
201A8
  8
Eigentuemer
100
AcDbEntity
100
AcDbPolyline
 70
0
 90
19
 62
7
370
0
 10
319999.073566678
 20
5674818.95701291
 10
320002.833671677
 20
5674828.38509385
 10
320003.039817785
 20
5674828.89499007
 10
320009.793164263
 20
5674845.84154064
 10
320004.515823914
 20
5674847.88112549
 10
320004.14476092
 20
5674848.021097
 10
320013.33887731
 20
5674870.39654255
 10
320020.710662111
 20
5674867.33716527
 10
320025.204647252
 20
5674865.47754379
 10
320023.877066321
 20
5674862.14822147
 10
320021.78262187
 20
5674856.87929394
 10
320019.209918449
 20
5674850.44060452
 10
320015.903334886
 20
5674842.16228955
 10
320014.608737332
 20
5674838.91295094
 10
320014.039774076
 20
5674837.49323992
 10
320009.380872048
 20
5674825.81561686
 10
320009.067529965
 20
5674825.0357756
 10
320005.604275361
 20
5674816.36753999
 10
319999.073566678
 20
5674818.95701291
  0
LWPOLYLINE
  5
201A9
  8
Eigentuemer
100
AcDbEntity
100
AcDbPolyline
 70
0
 90
19
 62
7
370
0
 10
319948.641982964
 20
5674892.56203082
 10
319948.394607635
 20
5674887.22311755
 10
319959.724397697
 20
5674884.67363648
 10
319985.261777482
 20
5674878.90481071
 10
319989.607337426
 20
5674877.92501015
 10
319970.542945414
 20
5674830.33469702
 10
319941.0722979
 20
5674841.82235874
 10
319931.738002157
 20
5674845.47161594
 10
319934.879668834
 20
5674853.70993906
 10
319938.458365258
 20
5674862.99804849
 10
319934.73948948
 20
5674864.54773305
 10
319936.157774699
 20
5674868.17699433
 10
319930.410421225
 20
5674870.39654255
 10
319930.550600578
 20
5674870.76646725
 10
319939.827175411
 20
5674894.83156887
 10
319940.008583986
 20
5674895.31147118
 10
319943.150250662
 20
5674894.31167469
 10
319943.331659237
 20
5674894.2516869
 10
319948.641982964
 20
5674892.56203082
  0
LWPOLYLINE
  5
201AA
  8
Eigentuemer
100
AcDbEntity
100
AcDbPolyline
 70
0
 90
14
 62
7
370
0
 10
319900.445023053
 20
5674861.08843718
 10
319904.213373896
 20
5674870.6364937
 10
319904.724616243
 20
5674871.94622711
 10
319915.394738762
 20
5674899.00072025
 10
319915.955456174
 20
5674898.79076298
 10
319918.849747522
 20
5674897.71098277
 10
319921.059633793
 20
5674896.88115168
 10
319911.659371296
 20
5674873.10599105
 10
319909.993710748
 20
5674868.90684577
 10
319911.758321427
 20
5674868.07701468
 10
319911.543929476
 20
5674867.52712661
 10
319910.084415035
 20
5674863.86787144
 10
319907.800316165
 20
5674858.13903753
 10
319900.445023053
 20
5674861.08843718
  0
LWPOLYLINE
  5
201AB
  8
Eigentuemer
100
AcDbEntity
100
AcDbPolyline
 70
0
 90
14
 62
7
370
0
 10
319900.445023053
 20
5674861.08843718
 10
319904.213373896
 20
5674870.6364937
 10
319904.724616243
 20
5674871.94622711
 10
319915.394738762
 20
5674899.00072025
 10
319915.955456174
 20
5674898.79076298
 10
319918.849747522
 20
5674897.71098277
 10
319921.059633793
 20
5674896.88115168
 10
319911.659371296
 20
5674873.10599105
 10
319909.993710748
 20
5674868.90684577
 10
319911.758321427
 20
5674868.07701468
 10
319911.543929476
 20
5674867.52712661
 10
319910.084415035
 20
5674863.86787144
 10
319907.800316165
 20
5674858.13903753
 10
319900.445023053
 20
5674861.08843718
  0
LWPOLYLINE
  5
201AC
  8
Eigentuemer
100
AcDbEntity
100
AcDbPolyline
 70
0
 90
14
 62
7
370
0
 10
319900.445023053
 20
5674861.08843718
 10
319904.213373896
 20
5674870.6364937
 10
319904.724616243
 20
5674871.94622711
 10
319915.394738762
 20
5674899.00072025
 10
319915.955456174
 20
5674898.79076298
 10
319918.849747522
 20
5674897.71098277
 10
319921.059633793
 20
5674896.88115168
 10
319911.659371296
 20
5674873.10599105
 10
319909.993710748
 20
5674868.90684577
 10
319911.758321427
 20
5674868.07701468
 10
319911.543929476
 20
5674867.52712661
 10
319910.084415035
 20
5674863.86787144
 10
319907.800316165
 20
5674858.13903753
 10
319900.445023053
 20
5674861.08843718
  0
LWPOLYLINE
  5
201AD
  8
Eigentuemer
100
AcDbEntity
100
AcDbPolyline
 70
0
 90
14
 62
7
370
0
 10
319900.445023053
 20
5674861.08843718
 10
319904.213373896
 20
5674870.6364937
 10
319904.724616243
 20
5674871.94622711
 10
319915.394738762
 20
5674899.00072025
 10
319915.955456174
 20
5674898.79076298
 10
319918.849747522
 20
5674897.71098277
 10
319921.059633793
 20
5674896.88115168
 10
319911.659371296
 20
5674873.10599105
 10
319909.993710748
 20
5674868.90684577
 10
319911.758321427
 20
5674868.07701468
 10
319911.543929476
 20
5674867.52712661
 10
319910.084415035
 20
5674863.86787144
 10
319907.800316165
 20
5674858.13903753
 10
319900.445023053
 20
5674861.08843718
  0
LWPOLYLINE
  5
201AE
  8
Eigentuemer
100
AcDbEntity
100
AcDbPolyline
 70
0
 90
14
 62
7
370
0
 10
319900.445023053
 20
5674861.08843718
 10
319904.213373896
 20
5674870.6364937
 10
319904.724616243
 20
5674871.94622711
 10
319915.394738762
 20
5674899.00072025
 10
319915.955456174
 20
5674898.79076298
 10
319918.849747522
 20
5674897.71098277
 10
319921.059633793
 20
5674896.88115168
 10
319911.659371296
 20
5674873.10599105
 10
319909.993710748
 20
5674868.90684577
 10
319911.758321427
 20
5674868.07701468
 10
319911.543929476
 20
5674867.52712661
 10
319910.084415035
 20
5674863.86787144
 10
319907.800316165
 20
5674858.13903753
 10
319900.445023053
 20
5674861.08843718
  0
LWPOLYLINE
  5
201AF
  8
Eigentuemer
100
AcDbEntity
100
AcDbPolyline
 70
0
 90
7
 62
7
370
0
 10
319985.261777482
 20
5674878.90481071
 10
319959.724397697
 20
5674884.67363648
 10
319966.230368847
 20
5674909.85851018
 10
319968.976234998
 20
5674920.51634081
 10
319994.389927118
 20
5674913.7577165
 10
319991.594585902
 20
5674903.08988791
 10
319985.261777482
 20
5674878.90481071
  0
LWPOLYLINE
  5
201B0
  8
Eigentuemer
100
AcDbEntity
100
AcDbPolyline
 70
0
 90
7
 62
7
370
0
 10
320038.900994628
 20
5674827.76522003
 10
320034.753334947
 20
5674829.40488628
 10
320031.108671768
 20
5674830.8545912
 10
320032.782578161
 20
5674835.12372223
 10
320032.906265825
 20
5674835.45365507
 10
320040.706834529
 20
5674832.3642839
 10
320038.900994628
 20
5674827.76522003
  0
LWPOLYLINE
  5
201B1
  8
Eigentuemer
100
AcDbEntity
100
AcDbPolyline
 70
0
 90
10
 62
7
370
0
 10
319898.103203273
 20
5674919.23660129
 10
319913.423981975
 20
5674933.02379495
 10
319915.848260198
 20
5674933.71365453
 10
319934.434393242
 20
5674929.22456827
 10
319932.216261126
 20
5674919.45655652
 10
319928.456156127
 20
5674902.80994489
 10
319928.258255864
 20
5674901.95011991
 10
319925.553618935
 20
5674902.99990623
 10
319906.827306538
 20
5674910.22843488
 10
319898.103203273
 20
5674919.23660129
  0
LWPOLYLINE
  5
201B2
  8
Eigentuemer
100
AcDbEntity
100
AcDbPolyline
 70
0
 90
12
 62
7
370
0
 10
319921.826497313
 20
5674848.12107665
 10
319922.230543683
 20
5674849.18086094
 10
319925.454668803
 20
5674857.53915963
 10
319925.644323222
 20
5674858.00906398
 10
319928.934415096
 20
5674866.57731994
 10
319929.066348605
 20
5674866.90725278
 10
319934.73948948
 20
5674864.54773305
 10
319938.458365258
 20
5674862.99804849
 10
319934.879668834
 20
5674853.70993906
 10
319931.738002157
 20
5674845.47161594
 10
319931.300972409
 20
5674844.33184794
 10
319921.826497313
 20
5674848.12107665
  0
LWPOLYLINE
  5
201B3
  8
Eigentuemer
100
AcDbEntity
100
AcDbPolyline
 70
0
 90
16
 62
7
370
0
 10
320004.672494955
 20
5674873.98581196
 10
320006.230959527
 20
5674880.10456651
 10
320010.741436357
 20
5674897.78096852
 10
320010.790911423
 20
5674897.97092986
 10
320013.520285885
 20
5674908.66875235
 10
320034.242092601
 20
5674903.3198411
 10
320039.742070746
 20
5674901.90013008
 10
320036.971467063
 20
5674894.96154241
 10
320033.986471428
 20
5674887.48306463
 10
320030.003728633
 20
5674877.50509562
 10
320027.595942098
 20
5674871.45632683
 10
320025.979756616
 20
5674867.41714899
 10
320025.204647252
 20
5674865.47754379
 10
320020.710662111
 20
5674867.33716527
 10
320013.33887731
 20
5674870.39654255
 10
320004.672494955
 20
5674873.98581196
  0
LWPOLYLINE
  5
201B4
  8
Eigentuemer
100
AcDbEntity
100
AcDbPolyline
 70
0
 90
10
 62
7
370
0
 10
320057.866436509
 20
5674816.46751964
 10
320057.454144294
 20
5674815.42773129
 10
320055.739008681
 20
5674811.04862264
 10
320054.287740085
 20
5674807.31938172
 10
320050.832731325
 20
5674798.5111746
 10
320044.466939528
 20
5674801.02066381
 10
320051.912936927
 20
5674820.00679923
 10
320056.143055051
 20
5674818.32714112
 10
320055.747254525
 20
5674817.31734666
 10
320057.866436509
 20
5674816.46751964
  0
LWPOLYLINE
  5
201B5
  8
Eigentuemer
100
AcDbEntity
100
AcDbPolyline
 70
0
 90
10
 62
7
370
0
 10
320057.866436509
 20
5674816.46751964
 10
320057.454144294
 20
5674815.42773129
 10
320055.739008681
 20
5674811.04862264
 10
320054.287740085
 20
5674807.31938172
 10
320050.832731325
 20
5674798.5111746
 10
320044.466939528
 20
5674801.02066381
 10
320051.912936927
 20
5674820.00679923
 10
320056.143055051
 20
5674818.32714112
 10
320055.747254525
 20
5674817.31734666
 10
320057.866436509
 20
5674816.46751964
  0
LWPOLYLINE
  5
201B6
  8
Eigentuemer
100
AcDbEntity
100
AcDbPolyline
 70
0
 90
8
 62
7
370
0
 10
319943.331659237
 20
5674894.2516869
 10
319943.150250662
 20
5674894.31167469
 10
319946.860880596
 20
5674909.81851832
 10
319950.596248062
 20
5674925.40534566
 10
319950.785902481
 20
5674925.35535584
 10
319948.444082701
 20
5674915.57734612
 10
319948.229690749
 20
5674914.65753335
 10
319943.331659237
 20
5674894.2516869
  0
LWPOLYLINE
  5
201B7
  8
Eigentuemer
100
AcDbEntity
100
AcDbPolyline
 70
0
 90
12
 62
7
370
0
 10
320017.033015555
 20
5674811.81846594
 10
320020.455040938
 20
5674820.45670765
 10
320024.685159062
 20
5674831.11453828
 10
320025.35307245
 20
5674832.80419436
 10
320025.52623518
 20
5674832.73420861
 10
320030.828313062
 20
5674830.66462986
 10
320031.009721637
 20
5674830.59464411
 10
320028.0989386
 20
5674823.16615615
 10
320026.895045333
 20
5674820.08678295
 10
320026.144673502
 20
5674818.16717368
 10
320022.763877341
 20
5674809.53892994
 10
320017.033015555
 20
5674811.81846594
  0
LWPOLYLINE
  5
201B8
  8
Eigentuemer
100
AcDbEntity
100
AcDbPolyline
 70
0
 90
12
 62
7
370
0
 10
320017.033015555
 20
5674811.81846594
 10
320020.455040938
 20
5674820.45670765
 10
320024.685159062
 20
5674831.11453828
 10
320025.35307245
 20
5674832.80419436
 10
320025.52623518
 20
5674832.73420861
 10
320030.828313062
 20
5674830.66462986
 10
320031.009721637
 20
5674830.59464411
 10
320028.0989386
 20
5674823.16615615
 10
320026.895045333
 20
5674820.08678295
 10
320026.144673502
 20
5674818.16717368
 10
320022.763877341
 20
5674809.53892994
 10
320017.033015555
 20
5674811.81846594
  0
LWPOLYLINE
  5
201B9
  8
Eigentuemer
100
AcDbEntity
100
AcDbPolyline
 70
0
 90
12
 62
7
370
0
 10
320017.033015555
 20
5674811.81846594
 10
320020.455040938
 20
5674820.45670765
 10
320024.685159062
 20
5674831.11453828
 10
320025.35307245
 20
5674832.80419436
 10
320025.52623518
 20
5674832.73420861
 10
320030.828313062
 20
5674830.66462986
 10
320031.009721637
 20
5674830.59464411
 10
320028.0989386
 20
5674823.16615615
 10
320026.895045333
 20
5674820.08678295
 10
320026.144673502
 20
5674818.16717368
 10
320022.763877341
 20
5674809.53892994
 10
320017.033015555
 20
5674811.81846594
  0
LWPOLYLINE
  5
201BA
  8
Eigentuemer
100
AcDbEntity
100
AcDbPolyline
 70
0
 90
9
 62
7
370
0
 10
319928.258255864
 20
5674901.95011991
 10
319928.456156127
 20
5674902.80994489
 10
319932.216261126
 20
5674919.45655652
 10
319934.434393242
 20
5674929.22456827
 10
319943.174988195
 20
5674927.1049997
 10
319940.89913517
 20
5674917.37697981
 10
319936.537083537
 20
5674898.75077112
 10
319935.992857813
 20
5674898.96072839
 10
319928.258255864
 20
5674901.95011991
  0
LWPOLYLINE
  5
201BB
  8
Eigentuemer
100
AcDbEntity
100
AcDbPolyline
 70
0
 90
10
 62
7
370
0
 10
320031.009721637
 20
5674830.59464411
 10
320030.828313062
 20
5674830.66462986
 10
320025.52623518
 20
5674832.73420861
 10
320025.35307245
 20
5674832.80419436
 10
320027.282600015
 20
5674837.67320329
 10
320031.273588654
 20
5674836.09352483
 10
320032.906265825
 20
5674835.45365507
 10
320032.782578161
 20
5674835.12372223
 10
320031.108671768
 20
5674830.8545912
 10
320031.009721637
 20
5674830.59464411
  0
LWPOLYLINE
  5
201BC
  8
Eigentuemer
100
AcDbEntity
100
AcDbPolyline
 70
0
 90
5
 62
7
370
0
 10
319929.066348605
 20
5674866.90725278
 10
319930.410421225
 20
5674870.39654255
 10
319936.157774699
 20
5674868.17699433
 10
319934.73948948
 20
5674864.54773305
 10
319929.066348605
 20
5674866.90725278
  0
LWPOLYLINE
  5
201BD
  8
Eigentuemer
100
AcDbEntity
100
AcDbPolyline
 70
0
 90
13
 62
7
370
0
 10
320022.763877341
 20
5674809.53892994
 10
320026.144673502
 20
5674818.16717368
 10
320026.895045333
 20
5674820.08678295
 10
320028.0989386
 20
5674823.16615615
 10
320031.009721637
 20
5674830.59464411
 10
320031.108671768
 20
5674830.8545912
 10
320034.753334947
 20
5674829.40488628
 10
320038.900994628
 20
5674827.76522003
 10
320033.904012985
 20
5674815.05780659
 10
320031.017967481
 20
5674807.71930032
 10
320030.514970979
 20
5674806.45955673
 10
320029.311077712
 20
5674806.93945905
 10
320022.763877341
 20
5674809.53892994
  0
LWPOLYLINE
  5
201BE
  8
Eigentuemer
100
AcDbEntity
100
AcDbPolyline
 70
0
 90
10
 62
7
370
0
 10
320013.528531729
 20
5674923.99563261
 10
320016.571248274
 20
5674934.6934551
 10
320017.923566739
 20
5674939.45248641
 10
320040.05541283
 20
5674933.46370541
 10
320040.879997259
 20
5674935.53328415
 10
320042.545657807
 20
5674936.73303994
 10
320044.541152127
 20
5674936.7730318
 10
320040.253313093
 20
5674917.05704494
 10
320036.344782896
 20
5674917.98685568
 10
320013.528531729
 20
5674923.99563261
  0
LWPOLYLINE
  5
201BF
  8
Eigentuemer
100
AcDbEntity
100
AcDbPolyline
 70
0
 90
7
 62
7
370
0
 10
319951.569257689
 20
5674940.88219539
 10
319968.59692616
 20
5674936.81302366
 10
319968.456746807
 20
5674936.31312542
 10
319968.448500963
 20
5674936.27313356
 10
319956.112717896
 20
5674939.62245181
 10
319951.923828993
 20
5674940.73222592
 10
319951.569257689
 20
5674940.88219539
  0
LWPOLYLINE
  5
201C0
  8
Eigentuemer
100
AcDbEntity
100
AcDbPolyline
 70
0
 90
10
 62
7
370
0
 10
320019.209918449
 20
5674850.44060452
 10
320021.78262187
 20
5674856.87929394
 10
320026.416786364
 20
5674855.06966229
 10
320036.526191471
 20
5674851.1304641
 10
320037.111646416
 20
5674850.90051091
 10
320046.544892291
 20
5674847.22125981
 10
320043.963943026
 20
5674840.65259684
 10
320034.538942996
 20
5674844.38183776
 10
320025.336580761
 20
5674848.021097
 10
320019.209918449
 20
5674850.44060452
  0
LWPOLYLINE
  5
201C1
  8
Eigentuemer
100
AcDbEntity
100
AcDbPolyline
 70
0
 90
11
 62
7
370
0
 10
319993.169542162
 20
5674821.30653467
 10
319993.284983982
 20
5674821.58647769
 10
319997.242989245
 20
5674831.20451997
 10
320004.14476092
 20
5674848.021097
 10
320004.515823914
 20
5674847.88112549
 10
320009.793164263
 20
5674845.84154064
 10
320003.039817785
 20
5674828.89499007
 10
320002.833671677
 20
5674828.38509385
 10
319999.073566678
 20
5674818.95701291
 10
319998.801453816
 20
5674819.05699256
 10
319993.169542162
 20
5674821.30653467
  0
LWPOLYLINE
  5
201C2
  8
Eigentuemer
100
AcDbEntity
100
AcDbPolyline
 70
0
 90
13
 62
7
370
0
 10
320021.667180049
 20
5674839.88275354
 10
320015.903334886
 20
5674842.16228955
 10
320019.209918449
 20
5674850.44060452
 10
320025.336580761
 20
5674848.021097
 10
320034.538942996
 20
5674844.38183776
 10
320043.963943026
 20
5674840.65259684
 10
320041.39948545
 20
5674834.1339237
 10
320040.706834529
 20
5674832.3642839
 10
320032.906265825
 20
5674835.45365507
 10
320031.273588654
 20
5674836.09352483
 10
320027.282600015
 20
5674837.67320329
 10
320023.926541387
 20
5674838.99293466
 10
320021.667180049
 20
5674839.88275354
  0
LWPOLYLINE
  5
201C3
  8
Eigentuemer
100
AcDbEntity
100
AcDbPolyline
 70
0
 90
13
 62
7
370
0
 10
320021.667180049
 20
5674839.88275354
 10
320015.903334886
 20
5674842.16228955
 10
320019.209918449
 20
5674850.44060452
 10
320025.336580761
 20
5674848.021097
 10
320034.538942996
 20
5674844.38183776
 10
320043.963943026
 20
5674840.65259684
 10
320041.39948545
 20
5674834.1339237
 10
320040.706834529
 20
5674832.3642839
 10
320032.906265825
 20
5674835.45365507
 10
320031.273588654
 20
5674836.09352483
 10
320027.282600015
 20
5674837.67320329
 10
320023.926541387
 20
5674838.99293466
 10
320021.667180049
 20
5674839.88275354
  0
LWPOLYLINE
  5
201C4
  8
Eigentuemer
100
AcDbEntity
100
AcDbPolyline
 70
0
 90
10
 62
7
370
0
 10
319948.641982964
 20
5674892.56203082
 10
319943.331659237
 20
5674894.2516869
 10
319948.229690749
 20
5674914.65753335
 10
319948.444082701
 20
5674915.57734612
 10
319950.785902481
 20
5674925.35535584
 10
319968.976234998
 20
5674920.51634081
 10
319966.230368847
 20
5674909.85851018
 10
319959.724397697
 20
5674884.67363648
 10
319948.394607635
 20
5674887.22311755
 10
319948.641982964
 20
5674892.56203082
  0
LWPOLYLINE
  5
201C5
  8
Eigentuemer
100
AcDbEntity
100
AcDbPolyline
 70
0
 90
10
 62
7
370
0
 10
320005.604275361
 20
5674816.36753999
 10
320009.067529965
 20
5674825.0357756
 10
320009.380872048
 20
5674825.81561686
 10
320014.039774076
 20
5674837.49323992
 10
320014.608737332
 20
5674838.91295094
 10
320015.903334886
 20
5674842.16228955
 10
320021.667180049
 20
5674839.88275354
 10
320014.781900062
 20
5674822.73624366
 10
320011.318645458
 20
5674814.09800195
 10
320005.604275361
 20
5674816.36753999
  0
LWPOLYLINE
  5
201C6
  8
Eigentuemer
100
AcDbEntity
100
AcDbPolyline
 70
0
 90
10
 62
7
370
0
 10
320005.604275361
 20
5674816.36753999
 10
320009.067529965
 20
5674825.0357756
 10
320009.380872048
 20
5674825.81561686
 10
320014.039774076
 20
5674837.49323992
 10
320014.608737332
 20
5674838.91295094
 10
320015.903334886
 20
5674842.16228955
 10
320021.667180049
 20
5674839.88275354
 10
320014.781900062
 20
5674822.73624366
 10
320011.318645458
 20
5674814.09800195
 10
320005.604275361
 20
5674816.36753999
  0
LWPOLYLINE
  5
201C7
  8
Eigentuemer
100
AcDbEntity
100
AcDbPolyline
 70
0
 90
11
 62
7
370
0
 10
319985.261777482
 20
5674878.90481071
 10
319991.594585902
 20
5674903.08988791
 10
319994.389927118
 20
5674913.7577165
 10
320013.520285885
 20
5674908.66875235
 10
320010.790911423
 20
5674897.97092986
 10
320010.741436357
 20
5674897.78096852
 10
320006.230959527
 20
5674880.10456651
 10
320004.672494955
 20
5674873.98581196
 10
319999.048829145
 20
5674875.79544361
 10
319989.607337426
 20
5674877.92501015
 10
319985.261777482
 20
5674878.90481071
  0
LWPOLYLINE
  5
201C8
  8
Eigentuemer
100
AcDbEntity
100
AcDbPolyline
 70
0
 90
13
 62
7
370
0
 10
320021.78262187
 20
5674856.87929394
 10
320023.877066321
 20
5674862.14822147
 10
320025.204647252
 20
5674865.47754379
 10
320025.979756616
 20
5674867.41714899
 10
320030.605675266
 20
5674865.58752141
 10
320031.669389181
 20
5674865.15760892
 10
320040.640867775
 20
5674861.5983334
 10
320050.643076906
 20
5674857.62914131
 10
320046.544892291
 20
5674847.22125981
 10
320037.111646416
 20
5674850.90051091
 10
320036.526191471
 20
5674851.1304641
 10
320026.416786364
 20
5674855.06966229
 10
320021.78262187
 20
5674856.87929394
  0
LWPOLYLINE
  5
201C9
  8
Eigentuemer
100
AcDbEntity
100
AcDbPolyline
 70
0
 90
7
 62
7
370
0
 10
319968.456746807
 20
5674936.31312542
 10
319968.59692616
 20
5674936.81302366
 10
319983.027153678
 20
5674933.36372576
 10
319982.788024194
 20
5674932.47390688
 10
319982.779778349
 20
5674932.42391705
 10
319968.448500963
 20
5674936.27313356
 10
319968.456746807
 20
5674936.31312542
  0
LWPOLYLINE
  5
201CA
  8
Eigentuemer
100
AcDbEntity
100
AcDbPolyline
 70
0
 90
9
 62
7
370
0
 10
319936.025841191
 20
5674896.54122087
 10
319936.537083537
 20
5674898.75077112
 10
319940.89913517
 20
5674917.37697981
 10
319943.174988195
 20
5674927.1049997
 10
319950.596248062
 20
5674925.40534566
 10
319946.860880596
 20
5674909.81851832
 10
319943.150250662
 20
5674894.31167469
 10
319940.008583986
 20
5674895.31147118
 10
319936.025841191
 20
5674896.54122087
  0
LWPOLYLINE
  5
201CB
  8
Eigentuemer
100
AcDbEntity
100
AcDbPolyline
 70
0
 90
8
 62
7
370
0
 10
319878.840910998
 20
5674899.53061239
 10
319880.737455186
 20
5674897.85095428
 10
319869.910661625
 20
5674870.08660563
 10
319864.633321275
 20
5674872.25616403
 10
319865.886689608
 20
5674875.32553926
 10
319869.349944213
 20
5674883.77381964
 10
319874.033583773
 20
5674892.42205932
 10
319878.840910998
 20
5674899.53061239
  0
LWPOLYLINE
  5
201CC
  8
Eigentuemer
100
AcDbEntity
100
AcDbPolyline
 70
0
 90
16
 62
7
370
0
 10
319988.601344422
 20
5674849.33083041
 10
319999.048829145
 20
5674875.79544361
 10
320004.672494955
 20
5674873.98581196
 10
320013.33887731
 20
5674870.39654255
 10
320004.14476092
 20
5674848.021097
 10
319997.242989245
 20
5674831.20451997
 10
319993.284983982
 20
5674821.58647769
 10
319993.169542162
 20
5674821.30653467
 10
319984.404209676
 20
5674824.78582648
 10
319982.664336529
 20
5674825.46568809
 10
319979.646357517
 20
5674826.65544592
 10
319979.753553493
 20
5674826.93538894
 10
319983.365233294
 20
5674836.08352686
 10
319983.571379402
 20
5674836.60342104
 10
319986.539883348
 20
5674844.11189271
 10
319988.601344422
 20
5674849.33083041
  0
LWPOLYLINE
  5
201CD
  8
Eigentuemer
100
AcDbEntity
100
AcDbPolyline
 70
0
 90
9
 62
7
370
0
 10
319904.213373896
 20
5674870.6364937
 10
319900.445023053
 20
5674861.08843718
 10
319887.59799764
 20
5674866.22739116
 10
319894.895569842
 20
5674884.50367108
 10
319896.181921552
 20
5674887.71301783
 10
319902.597188414
 20
5674903.77974749
 10
319915.394738762
 20
5674899.00072025
 10
319904.724616243
 20
5674871.94622711
 10
319904.213373896
 20
5674870.6364937
  0
LWPOLYLINE
  5
201CE
  8
Eigentuemer
100
AcDbEntity
100
AcDbPolyline
 70
0
 90
9
 62
7
370
0
 10
319904.213373896
 20
5674870.6364937
 10
319900.445023053
 20
5674861.08843718
 10
319887.59799764
 20
5674866.22739116
 10
319894.895569842
 20
5674884.50367108
 10
319896.181921552
 20
5674887.71301783
 10
319902.597188414
 20
5674903.77974749
 10
319915.394738762
 20
5674899.00072025
 10
319904.724616243
 20
5674871.94622711
 10
319904.213373896
 20
5674870.6364937
  0
LWPOLYLINE
  5
201CF
  8
Eigentuemer
100
AcDbEntity
100
AcDbPolyline
 70
0
 90
9
 62
7
370
0
 10
319904.213373896
 20
5674870.6364937
 10
319900.445023053
 20
5674861.08843718
 10
319887.59799764
 20
5674866.22739116
 10
319894.895569842
 20
5674884.50367108
 10
319896.181921552
 20
5674887.71301783
 10
319902.597188414
 20
5674903.77974749
 10
319915.394738762
 20
5674899.00072025
 10
319904.724616243
 20
5674871.94622711
 10
319904.213373896
 20
5674870.6364937
  0
LWPOLYLINE
  5
201D0
  8
Eigentuemer
100
AcDbEntity
100
AcDbPolyline
 70
0
 90
9
 62
7
370
0
 10
319904.213373896
 20
5674870.6364937
 10
319900.445023053
 20
5674861.08843718
 10
319887.59799764
 20
5674866.22739116
 10
319894.895569842
 20
5674884.50367108
 10
319896.181921552
 20
5674887.71301783
 10
319902.597188414
 20
5674903.77974749
 10
319915.394738762
 20
5674899.00072025
 10
319904.724616243
 20
5674871.94622711
 10
319904.213373896
 20
5674870.6364937
  0
LWPOLYLINE
  5
201D1
  8
Eigentuemer
100
AcDbEntity
100
AcDbPolyline
 70
0
 90
9
 62
7
370
0
 10
319904.213373896
 20
5674870.6364937
 10
319900.445023053
 20
5674861.08843718
 10
319887.59799764
 20
5674866.22739116
 10
319894.895569842
 20
5674884.50367108
 10
319896.181921552
 20
5674887.71301783
 10
319902.597188414
 20
5674903.77974749
 10
319915.394738762
 20
5674899.00072025
 10
319904.724616243
 20
5674871.94622711
 10
319904.213373896
 20
5674870.6364937
  0
LWPOLYLINE
  5
201D2
  8
Eigentuemer
100
AcDbEntity
100
AcDbPolyline
 70
0
 90
9
 62
7
370
0
 10
319904.213373896
 20
5674870.6364937
 10
319900.445023053
 20
5674861.08843718
 10
319887.59799764
 20
5674866.22739116
 10
319894.895569842
 20
5674884.50367108
 10
319896.181921552
 20
5674887.71301783
 10
319902.597188414
 20
5674903.77974749
 10
319915.394738762
 20
5674899.00072025
 10
319904.724616243
 20
5674871.94622711
 10
319904.213373896
 20
5674870.6364937
  0
LWPOLYLINE
  5
201D3
  8
Eigentuemer
100
AcDbEntity
100
AcDbPolyline
 70
0
 90
9
 62
7
370
0
 10
319904.213373896
 20
5674870.6364937
 10
319900.445023053
 20
5674861.08843718
 10
319887.59799764
 20
5674866.22739116
 10
319894.895569842
 20
5674884.50367108
 10
319896.181921552
 20
5674887.71301783
 10
319902.597188414
 20
5674903.77974749
 10
319915.394738762
 20
5674899.00072025
 10
319904.724616243
 20
5674871.94622711
 10
319904.213373896
 20
5674870.6364937
  0
LWPOLYLINE
  5
201D4
  8
Eigentuemer
100
AcDbEntity
100
AcDbPolyline
 70
0
 90
9
 62
7
370
0
 10
319904.213373896
 20
5674870.6364937
 10
319900.445023053
 20
5674861.08843718
 10
319887.59799764
 20
5674866.22739116
 10
319894.895569842
 20
5674884.50367108
 10
319896.181921552
 20
5674887.71301783
 10
319902.597188414
 20
5674903.77974749
 10
319915.394738762
 20
5674899.00072025
 10
319904.724616243
 20
5674871.94622711
 10
319904.213373896
 20
5674870.6364937
  0
LWPOLYLINE
  5
201D5
  8
Eigentuemer
100
AcDbEntity
100
AcDbPolyline
 70
0
 90
9
 62
7
370
0
 10
319904.213373896
 20
5674870.6364937
 10
319900.445023053
 20
5674861.08843718
 10
319887.59799764
 20
5674866.22739116
 10
319894.895569842
 20
5674884.50367108
 10
319896.181921552
 20
5674887.71301783
 10
319902.597188414
 20
5674903.77974749
 10
319915.394738762
 20
5674899.00072025
 10
319904.724616243
 20
5674871.94622711
 10
319904.213373896
 20
5674870.6364937
  0
LWPOLYLINE
  5
201D6
  8
Eigentuemer
100
AcDbEntity
100
AcDbPolyline
 70
0
 90
9
 62
7
370
0
 10
319904.213373896
 20
5674870.6364937
 10
319900.445023053
 20
5674861.08843718
 10
319887.59799764
 20
5674866.22739116
 10
319894.895569842
 20
5674884.50367108
 10
319896.181921552
 20
5674887.71301783
 10
319902.597188414
 20
5674903.77974749
 10
319915.394738762
 20
5674899.00072025
 10
319904.724616243
 20
5674871.94622711
 10
319904.213373896
 20
5674870.6364937
  0
LWPOLYLINE
  5
201D7
  8
Eigentuemer
100
AcDbEntity
100
AcDbPolyline
 70
0
 90
9
 62
7
370
0
 10
319904.213373896
 20
5674870.6364937
 10
319900.445023053
 20
5674861.08843718
 10
319887.59799764
 20
5674866.22739116
 10
319894.895569842
 20
5674884.50367108
 10
319896.181921552
 20
5674887.71301783
 10
319902.597188414
 20
5674903.77974749
 10
319915.394738762
 20
5674899.00072025
 10
319904.724616243
 20
5674871.94622711
 10
319904.213373896
 20
5674870.6364937
  0
LWPOLYLINE
  5
201D8
  8
Eigentuemer
100
AcDbEntity
100
AcDbPolyline
 70
0
 90
9
 62
7
370
0
 10
319904.213373896
 20
5674870.6364937
 10
319900.445023053
 20
5674861.08843718
 10
319887.59799764
 20
5674866.22739116
 10
319894.895569842
 20
5674884.50367108
 10
319896.181921552
 20
5674887.71301783
 10
319902.597188414
 20
5674903.77974749
 10
319915.394738762
 20
5674899.00072025
 10
319904.724616243
 20
5674871.94622711
 10
319904.213373896
 20
5674870.6364937
  0
LWPOLYLINE
  5
201D9
  8
Eigentuemer
100
AcDbEntity
100
AcDbPolyline
 70
0
 90
9
 62
7
370
0
 10
319904.213373896
 20
5674870.6364937
 10
319900.445023053
 20
5674861.08843718
 10
319887.59799764
 20
5674866.22739116
 10
319894.895569842
 20
5674884.50367108
 10
319896.181921552
 20
5674887.71301783
 10
319902.597188414
 20
5674903.77974749
 10
319915.394738762
 20
5674899.00072025
 10
319904.724616243
 20
5674871.94622711
 10
319904.213373896
 20
5674870.6364937
  0
LWPOLYLINE
  5
201DA
  8
Eigentuemer
100
AcDbEntity
100
AcDbPolyline
 70
0
 90
9
 62
7
370
0
 10
319904.213373896
 20
5674870.6364937
 10
319900.445023053
 20
5674861.08843718
 10
319887.59799764
 20
5674866.22739116
 10
319894.895569842
 20
5674884.50367108
 10
319896.181921552
 20
5674887.71301783
 10
319902.597188414
 20
5674903.77974749
 10
319915.394738762
 20
5674899.00072025
 10
319904.724616243
 20
5674871.94622711
 10
319904.213373896
 20
5674870.6364937
  0
LWPOLYLINE
  5
201DB
  8
Eigentuemer
100
AcDbEntity
100
AcDbPolyline
 70
0
 90
13
 62
7
370
0
 10
319925.553618935
 20
5674902.99990623
 10
319922.881965383
 20
5674896.20129006
 10
319921.059633793
 20
5674896.88115168
 10
319918.849747522
 20
5674897.71098277
 10
319915.955456174
 20
5674898.79076298
 10
319915.394738762
 20
5674899.00072025
 10
319902.597188414
 20
5674903.77974749
 10
319895.827350247
 20
5674906.30923262
 10
319890.690189251
 20
5674908.22884189
 10
319887.292901401
 20
5674909.49858344
 10
319898.103203273
 20
5674919.23660129
 10
319906.827306538
 20
5674910.22843488
 10
319925.553618935
 20
5674902.99990623
  0
LWPOLYLINE
  5
201DC
  8
Eigentuemer
100
AcDbEntity
100
AcDbPolyline
 70
0
 90
13
 62
7
370
0
 10
319925.553618935
 20
5674902.99990623
 10
319922.881965383
 20
5674896.20129006
 10
319921.059633793
 20
5674896.88115168
 10
319918.849747522
 20
5674897.71098277
 10
319915.955456174
 20
5674898.79076298
 10
319915.394738762
 20
5674899.00072025
 10
319902.597188414
 20
5674903.77974749
 10
319895.827350247
 20
5674906.30923262
 10
319890.690189251
 20
5674908.22884189
 10
319887.292901401
 20
5674909.49858344
 10
319898.103203273
 20
5674919.23660129
 10
319906.827306538
 20
5674910.22843488
 10
319925.553618935
 20
5674902.99990623
  0
LWPOLYLINE
  5
201DD
  8
Eigentuemer
100
AcDbEntity
100
AcDbPolyline
 70
0
 90
13
 62
7
370
0
 10
319925.553618935
 20
5674902.99990623
 10
319922.881965383
 20
5674896.20129006
 10
319921.059633793
 20
5674896.88115168
 10
319918.849747522
 20
5674897.71098277
 10
319915.955456174
 20
5674898.79076298
 10
319915.394738762
 20
5674899.00072025
 10
319902.597188414
 20
5674903.77974749
 10
319895.827350247
 20
5674906.30923262
 10
319890.690189251
 20
5674908.22884189
 10
319887.292901401
 20
5674909.49858344
 10
319898.103203273
 20
5674919.23660129
 10
319906.827306538
 20
5674910.22843488
 10
319925.553618935
 20
5674902.99990623
  0
LWPOLYLINE
  5
201DE
  8
Eigentuemer
100
AcDbEntity
100
AcDbPolyline
 70
0
 90
10
 62
7
370
0
 10
319886.443579438
 20
5674863.31798337
 10
319886.047778912
 20
5674862.31818687
 10
319879.558299451
 20
5674865.03763334
 10
319879.929362445
 20
5674865.98744001
 10
319895.827350247
 20
5674906.30923262
 10
319902.597188414
 20
5674903.77974749
 10
319896.181921552
 20
5674887.71301783
 10
319894.895569842
 20
5674884.50367108
 10
319887.59799764
 20
5674866.22739116
 10
319886.443579438
 20
5674863.31798337
  0
LWPOLYLINE
  5
201DF
  8
Eigentuemer
100
AcDbEntity
100
AcDbPolyline
 70
0
 90
10
 62
7
370
0
 10
319886.443579438
 20
5674863.31798337
 10
319886.047778912
 20
5674862.31818687
 10
319879.558299451
 20
5674865.03763334
 10
319879.929362445
 20
5674865.98744001
 10
319895.827350247
 20
5674906.30923262
 10
319902.597188414
 20
5674903.77974749
 10
319896.181921552
 20
5674887.71301783
 10
319894.895569842
 20
5674884.50367108
 10
319887.59799764
 20
5674866.22739116
 10
319886.443579438
 20
5674863.31798337
  0
LWPOLYLINE
  5
201E0
  8
Eigentuemer
100
AcDbEntity
100
AcDbPolyline
 70
0
 90
10
 62
7
370
0
 10
319886.443579438
 20
5674863.31798337
 10
319886.047778912
 20
5674862.31818687
 10
319879.558299451
 20
5674865.03763334
 10
319879.929362445
 20
5674865.98744001
 10
319895.827350247
 20
5674906.30923262
 10
319902.597188414
 20
5674903.77974749
 10
319896.181921552
 20
5674887.71301783
 10
319894.895569842
 20
5674884.50367108
 10
319887.59799764
 20
5674866.22739116
 10
319886.443579438
 20
5674863.31798337
  0
LWPOLYLINE
  5
201E1
  8
Eigentuemer
100
AcDbEntity
100
AcDbPolyline
 70
0
 90
22
 62
7
370
0
 10
319906.703618874
 20
5674855.18963787
 10
319907.800316165
 20
5674858.13903753
 10
319910.084415035
 20
5674863.86787144
 10
319911.543929476
 20
5674867.52712661
 10
319911.758321427
 20
5674868.07701468
 10
319913.473457041
 20
5674872.35614367
 10
319922.881965383
 20
5674896.20129006
 10
319925.553618935
 20
5674902.99990623
 10
319928.258255864
 20
5674901.95011991
 10
319935.992857813
 20
5674898.96072839
 10
319936.537083537
 20
5674898.75077112
 10
319936.025841191
 20
5674896.54122087
 10
319940.008583986
 20
5674895.31147118
 10
319939.827175411
 20
5674894.83156887
 10
319930.550600578
 20
5674870.76646725
 10
319930.410421225
 20
5674870.39654255
 10
319929.066348605
 20
5674866.90725278
 10
319928.934415096
 20
5674866.57731994
 10
319925.644323222
 20
5674858.00906398
 10
319925.454668803
 20
5674857.53915963
 10
319922.230543683
 20
5674849.18086094
 10
319906.703618874
 20
5674855.18963787
  0
LWPOLYLINE
  5
201E2
  8
Eigentuemer
100
AcDbEntity
100
AcDbPolyline
 70
0
 90
5
 62
7
370
0
 10
319911.758321427
 20
5674868.07701468
 10
319909.993710748
 20
5674868.90684577
 10
319911.659371296
 20
5674873.10599105
 10
319913.473457041
 20
5674872.35614367
 10
319911.758321427
 20
5674868.07701468
  0
LWPOLYLINE
  5
201E3
  8
Eigentuemer
100
AcDbEntity
100
AcDbPolyline
 70
0
 90
5
 62
7
370
0
 10
319911.659371296
 20
5674873.10599105
 10
319921.059633793
 20
5674896.88115168
 10
319922.881965383
 20
5674896.20129006
 10
319913.473457041
 20
5674872.35614367
 10
319911.659371296
 20
5674873.10599105
  0
LWPOLYLINE
  5
201E4
  8
Eigentuemer
100
AcDbEntity
100
AcDbPolyline
 70
0
 90
13
 62
7
370
0
 10
319867.733758731
 20
5674826.65544592
 10
319875.262214573
 20
5674846.38143075
 10
319876.367157709
 20
5674845.95151826
 10
319879.335661655
 20
5674853.52997569
 10
319885.231440327
 20
5674851.20044986
 10
319882.163986249
 20
5674843.2320718
 10
319880.440604791
 20
5674838.7529835
 10
319879.714970493
 20
5674836.86336813
 10
319876.993841875
 20
5674829.79480691
 10
319876.086799003
 20
5674827.43528719
 10
319874.767463915
 20
5674824.19594654
 10
319867.939904838
 20
5674826.58546016
 10
319867.733758731
 20
5674826.65544592
  0
LWPOLYLINE
  5
201E5
  8
Eigentuemer
100
AcDbEntity
100
AcDbPolyline
 70
0
 90
13
 62
7
370
0
 10
319874.767463915
 20
5674824.19594654
 10
319876.086799003
 20
5674827.43528719
 10
319876.993841875
 20
5674829.79480691
 10
319879.714970493
 20
5674836.86336813
 10
319880.440604791
 20
5674838.7529835
 10
319882.163986249
 20
5674843.2320718
 10
319885.231440327
 20
5674851.20044986
 10
319890.525272365
 20
5674849.11087518
 10
319887.48255582
 20
5674841.16249305
 10
319885.54478241
 20
5674836.12351872
 10
319880.201475306
 20
5674822.40631082
 10
319876.317682643
 20
5674823.64605847
 10
319874.767463915
 20
5674824.19594654
  0
LWPOLYLINE
  5
201E6
  8
Eigentuemer
100
AcDbEntity
100
AcDbPolyline
 70
0
 90
19
 62
7
370
0
 10
319868.203771856
 20
5674803.24021202
 10
319867.395679115
 20
5674801.21062514
 10
319857.987170773
 20
5674804.40997392
 10
319858.976672088
 20
5674806.88946923
 10
319859.034392998
 20
5674807.0394387
 10
319859.158080663
 20
5674807.35937358
 10
319861.029887318
 20
5674812.02842321
 10
319861.516392132
 20
5674813.2581729
 10
319863.058365015
 20
5674817.11738736
 10
319865.763001944
 20
5674823.89600759
 10
319865.919672986
 20
5674824.2659323
 10
319866.975141056
 20
5674826.92539097
 10
319867.733758731
 20
5674826.65544592
 10
319867.939904838
 20
5674826.58546016
 10
319874.767463915
 20
5674824.19594654
 10
319876.317682643
 20
5674823.64605847
 10
319869.646794607
 20
5674806.85947533
 10
319868.55834316
 20
5674804.1300309
 10
319868.203771856
 20
5674803.24021202
  0
LWPOLYLINE
  5
201E7
  8
Eigentuemer
100
AcDbEntity
100
AcDbPolyline
 70
0
 90
26
 62
7
370
0
 10
319896.651934677
 20
5674817.31734666
 10
319900.07396006
 20
5674816.52750743
 10
319899.818338887
 20
5674815.84764582
 10
319898.301103536
 20
5674811.87845373
 10
319898.268120159
 20
5674811.77847408
 10
319898.13618665
 20
5674811.43854328
 10
319897.67441937
 20
5674810.21879155
 10
319894.483277627
 20
5674801.820501
 10
319893.262892671
 20
5674798.63115018
 10
319889.601737804
 20
5674799.97087749
 10
319886.666217235
 20
5674801.0506577
 10
319883.252437696
 20
5674802.35039314
 10
319879.335661655
 20
5674803.80009806
 10
319880.654996743
 20
5674806.93945905
 10
319886.336383463
 20
5674820.43671172
 10
319885.520044877
 20
5674820.69665881
 10
319889.791392223
 20
5674831.61443653
 10
319892.677437726
 20
5674839.14290413
 10
319895.711908427
 20
5674847.06129237
 10
319903.454756221
 20
5674844.0019151
 10
319900.313089544
 20
5674836.22349837
 10
319899.13393381
 20
5674834.05393998
 10
319901.64891632
 20
5674833.04414552
 10
319899.216392253
 20
5674825.36570844
 10
319897.888811321
 20
5674821.20655503
 10
319896.651934677
 20
5674817.31734666
  0
LWPOLYLINE
  5
201E8
  8
Eigentuemer
100
AcDbEntity
100
AcDbPolyline
 70
0
 90
10
 62
7
370
0
 10
319880.201475306
 20
5674822.40631082
 10
319885.54478241
 20
5674836.12351872
 10
319887.48255582
 20
5674841.16249305
 10
319890.525272365
 20
5674849.11087518
 10
319890.99528549
 20
5674848.93091181
 10
319895.711908427
 20
5674847.06129237
 10
319892.677437726
 20
5674839.14290413
 10
319889.791392223
 20
5674831.61443653
 10
319885.520044877
 20
5674820.69665881
 10
319880.201475306
 20
5674822.40631082
  0
LWPOLYLINE
  5
201E9
  8
Eigentuemer
100
AcDbEntity
100
AcDbPolyline
 70
0
 90
6
 62
7
370
0
 10
319884.505806029
 20
5674795.61176477
 10
319876.878400055
 20
5674797.79132113
 10
319878.387389561
 20
5674801.48057019
 10
319885.990058002
 20
5674799.35100366
 10
319884.744935514
 20
5674796.2016447
 10
319884.505806029
 20
5674795.61176477
  0
LWPOLYLINE
  5
201EA
  8
Eigentuemer
100
AcDbEntity
100
AcDbPolyline
 70
0
 90
6
 62
7
370
0
 10
319982.779778349
 20
5674932.42391705
 10
319982.788024194
 20
5674932.47390688
 10
319983.027153678
 20
5674933.36372576
 10
319987.133584138
 20
5674932.38392519
 10
319986.844979587
 20
5674931.32414091
 10
319982.779778349
 20
5674932.42391705
  0
LWPOLYLINE
  5
201EB
  8
Eigentuemer
100
AcDbEntity
100
AcDbPolyline
 70
0
 90
10
 62
7
370
0
 10
319879.335661655
 20
5674803.80009806
 10
319878.387389561
 20
5674801.48057019
 10
319868.55834316
 20
5674804.1300309
 10
319869.646794607
 20
5674806.85947533
 10
319876.317682643
 20
5674823.64605847
 10
319880.201475306
 20
5674822.40631082
 10
319885.520044877
 20
5674820.69665881
 10
319886.336383463
 20
5674820.43671172
 10
319880.654996743
 20
5674806.93945905
 10
319879.335661655
 20
5674803.80009806
  0
LWPOLYLINE
  5
201EC
  8
Eigentuemer
100
AcDbEntity
100
AcDbPolyline
 70
0
 90
6
 62
7
370
0
 10
319878.387389561
 20
5674801.48057019
 10
319879.335661655
 20
5674803.80009806
 10
319883.252437696
 20
5674802.35039314
 10
319886.666217235
 20
5674801.0506577
 10
319885.990058002
 20
5674799.35100366
 10
319878.387389561
 20
5674801.48057019
  0
LWPOLYLINE
  5
201ED
  8
Eigentuemer
100
AcDbEntity
100
AcDbPolyline
 70
0
 90
7
 62
7
370
0
 10
319876.878400055
 20
5674797.79132113
 10
319867.107074564
 20
5674800.4807737
 10
319867.395679115
 20
5674801.21062514
 10
319868.203771856
 20
5674803.24021202
 10
319868.55834316
 20
5674804.1300309
 10
319878.387389561
 20
5674801.48057019
 10
319876.878400055
 20
5674797.79132113
  0
LWPOLYLINE
  5
201EE
  8
Eigentuemer
100
AcDbEntity
100
AcDbPolyline
 70
0
 90
5
 62
7
370
0
 10
319875.262214573
 20
5674846.38143075
 10
319878.23071852
 20
5674853.96988614
 10
319879.335661655
 20
5674853.52997569
 10
319876.367157709
 20
5674845.95151826
 10
319875.262214573
 20
5674846.38143075
  0
LWPOLYLINE
  5
201EF
  8
Eigentuemer
100
AcDbEntity
100
AcDbPolyline
 70
0
 90
5
 62
7
370
0
 10
319875.262214573
 20
5674846.38143075
 10
319878.23071852
 20
5674853.96988614
 10
319879.335661655
 20
5674853.52997569
 10
319876.367157709
 20
5674845.95151826
 10
319875.262214573
 20
5674846.38143075
  0
LWPOLYLINE
  5
201F0
  8
Eigentuemer
100
AcDbEntity
100
AcDbPolyline
 70
0
 90
5
 62
7
370
0
 10
319875.262214573
 20
5674846.38143075
 10
319878.23071852
 20
5674853.96988614
 10
319879.335661655
 20
5674853.52997569
 10
319876.367157709
 20
5674845.95151826
 10
319875.262214573
 20
5674846.38143075
  0
LWPOLYLINE
  5
201F1
  8
Eigentuemer
100
AcDbEntity
100
AcDbPolyline
 70
0
 90
5
 62
7
370
0
 10
319875.262214573
 20
5674846.38143075
 10
319878.23071852
 20
5674853.96988614
 10
319879.335661655
 20
5674853.52997569
 10
319876.367157709
 20
5674845.95151826
 10
319875.262214573
 20
5674846.38143075
  0
LWPOLYLINE
  5
201F2
  8
Eigentuemer
100
AcDbEntity
100
AcDbPolyline
 70
0
 90
5
 62
7
370
0
 10
319875.262214573
 20
5674846.38143075
 10
319878.23071852
 20
5674853.96988614
 10
319879.335661655
 20
5674853.52997569
 10
319876.367157709
 20
5674845.95151826
 10
319875.262214573
 20
5674846.38143075
  0
LWPOLYLINE
  5
201F3
  8
Eigentuemer
100
AcDbEntity
100
AcDbPolyline
 70
0
 90
5
 62
7
370
0
 10
319875.262214573
 20
5674846.38143075
 10
319878.23071852
 20
5674853.96988614
 10
319879.335661655
 20
5674853.52997569
 10
319876.367157709
 20
5674845.95151826
 10
319875.262214573
 20
5674846.38143075
  0
LWPOLYLINE
  5
201F4
  8
Eigentuemer
100
AcDbEntity
100
AcDbPolyline
 70
0
 90
5
 62
7
370
0
 10
319875.262214573
 20
5674846.38143075
 10
319878.23071852
 20
5674853.96988614
 10
319879.335661655
 20
5674853.52997569
 10
319876.367157709
 20
5674845.95151826
 10
319875.262214573
 20
5674846.38143075
  0
LWPOLYLINE
  5
201F5
  8
Eigentuemer
100
AcDbEntity
100
AcDbPolyline
 70
0
 90
5
 62
7
370
0
 10
319875.262214573
 20
5674846.38143075
 10
319878.23071852
 20
5674853.96988614
 10
319879.335661655
 20
5674853.52997569
 10
319876.367157709
 20
5674845.95151826
 10
319875.262214573
 20
5674846.38143075
  0
LWPOLYLINE
  5
201F6
  8
Eigentuemer
100
AcDbEntity
100
AcDbPolyline
 70
0
 90
5
 62
7
370
0
 10
319875.262214573
 20
5674846.38143075
 10
319878.23071852
 20
5674853.96988614
 10
319879.335661655
 20
5674853.52997569
 10
319876.367157709
 20
5674845.95151826
 10
319875.262214573
 20
5674846.38143075
  0
LWPOLYLINE
  5
201F7
  8
Eigentuemer
100
AcDbEntity
100
AcDbPolyline
 70
0
 90
5
 62
7
370
0
 10
319875.262214573
 20
5674846.38143075
 10
319878.23071852
 20
5674853.96988614
 10
319879.335661655
 20
5674853.52997569
 10
319876.367157709
 20
5674845.95151826
 10
319875.262214573
 20
5674846.38143075
  0
LWPOLYLINE
  5
201F8
  8
Eigentuemer
100
AcDbEntity
100
AcDbPolyline
 70
0
 90
7
 62
7
370
0
 10
319885.990058002
 20
5674799.35100366
 10
319886.666217235
 20
5674801.0506577
 10
319889.601737804
 20
5674799.97087749
 10
319893.262892671
 20
5674798.63115018
 10
319892.99077981
 20
5674797.89130078
 10
319892.834108768
 20
5674797.49138218
 10
319885.990058002
 20
5674799.35100366
  0
LWPOLYLINE
  5
201F9
  8
Eigentuemer
100
AcDbEntity
100
AcDbPolyline
 70
0
 90
9
 62
7
370
0
 10
319879.929362445
 20
5674865.98744001
 10
319869.910661625
 20
5674870.08660563
 10
319880.737455186
 20
5674897.85095428
 10
319878.840910998
 20
5674899.53061239
 10
319880.663242587
 20
5674902.23006292
 10
319887.292901401
 20
5674909.49858344
 10
319890.690189251
 20
5674908.22884189
 10
319895.827350247
 20
5674906.30923262
 10
319879.929362445
 20
5674865.98744001
  0
LWPOLYLINE
  5
201FA
  8
Eigentuemer
100
AcDbEntity
100
AcDbPolyline
 70
0
 90
15
 62
7
370
0
 10
319899.216392253
 20
5674825.36570844
 10
319901.64891632
 20
5674833.04414552
 10
319899.13393381
 20
5674834.05393998
 10
319900.313089544
 20
5674836.22349837
 10
319903.454756221
 20
5674844.0019151
 10
319910.010202437
 20
5674841.41244218
 10
319906.92625667
 20
5674833.68401527
 10
319906.736602251
 20
5674833.22410889
 10
319902.960005564
 20
5674823.76603405
 10
319902.052962691
 20
5674821.49649601
 10
319901.385049303
 20
5674819.80683993
 10
319900.07396006
 20
5674816.52750743
 10
319896.651934677
 20
5674817.31734666
 10
319897.888811321
 20
5674821.20655503
 10
319899.216392253
 20
5674825.36570844
  0
LWPOLYLINE
  5
201FB
  8
Eigentuemer
100
AcDbEntity
100
AcDbPolyline
 70
0
 90
15
 62
7
370
0
 10
319899.216392253
 20
5674825.36570844
 10
319901.64891632
 20
5674833.04414552
 10
319899.13393381
 20
5674834.05393998
 10
319900.313089544
 20
5674836.22349837
 10
319903.454756221
 20
5674844.0019151
 10
319910.010202437
 20
5674841.41244218
 10
319906.92625667
 20
5674833.68401527
 10
319906.736602251
 20
5674833.22410889
 10
319902.960005564
 20
5674823.76603405
 10
319902.052962691
 20
5674821.49649601
 10
319901.385049303
 20
5674819.80683993
 10
319900.07396006
 20
5674816.52750743
 10
319896.651934677
 20
5674817.31734666
 10
319897.888811321
 20
5674821.20655503
 10
319899.216392253
 20
5674825.36570844
  0
LWPOLYLINE
  5
201FC
  8
Eigentuemer
100
AcDbEntity
100
AcDbPolyline
 70
0
 90
14
 62
7
370
0
 10
319892.834108768
 20
5674797.49138218
 10
319892.99077981
 20
5674797.89130078
 10
319893.262892671
 20
5674798.63115018
 10
319894.483277627
 20
5674801.820501
 10
319897.67441937
 20
5674810.21879155
 10
319898.13618665
 20
5674811.43854328
 10
319898.342332758
 20
5674811.35855956
 10
319901.137673974
 20
5674810.30877324
 10
319902.984743096
 20
5674809.61891366
 10
319907.165386154
 20
5674808.04923316
 10
319903.364051934
 20
5674798.56116443
 10
319902.077700224
 20
5674795.33182175
 10
319901.822079051
 20
5674794.70194996
 10
319892.834108768
 20
5674797.49138218
  0
LWPOLYLINE
  5
201FD
  8
Eigentuemer
100
AcDbEntity
100
AcDbPolyline
 70
0
 90
23
 62
7
370
0
 10
319902.052962691
 20
5674821.49649601
 10
319902.960005564
 20
5674823.76603405
 10
319906.736602251
 20
5674833.22410889
 10
319906.92625667
 20
5674833.68401527
 10
319910.010202437
 20
5674841.41244218
 10
319918.420963619
 20
5674838.08311985
 10
319919.080631162
 20
5674837.82317276
 10
319915.798785132
 20
5674829.62484151
 10
319914.149616273
 20
5674825.50567995
 10
319912.624135078
 20
5674821.69645531
 10
319912.450972348
 20
5674821.26654281
 10
319909.251584761
 20
5674813.2581729
 10
319907.165386154
 20
5674808.04923316
 10
319902.984743096
 20
5674809.61891366
 10
319901.137673974
 20
5674810.30877324
 10
319898.342332758
 20
5674811.35855956
 10
319898.13618665
 20
5674811.43854328
 10
319898.268120159
 20
5674811.77847408
 10
319898.301103536
 20
5674811.87845373
 10
319899.818338887
 20
5674815.84764582
 10
319900.07396006
 20
5674816.52750743
 10
319901.385049303
 20
5674819.80683993
 10
319902.052962691
 20
5674821.49649601
  0
LWPOLYLINE
  5
201FE
  8
Eigentuemer
100
AcDbEntity
100
AcDbPolyline
 70
0
 90
11
 62
7
370
0
 10
319935.061077408
 20
5674806.65951603
 10
319930.031112387
 20
5674794.59197235
 10
319926.666807915
 20
5674794.59197235
 10
319923.648828902
 20
5674795.89170779
 10
319933.618054656
 20
5674820.50669748
 10
319934.318951421
 20
5674822.26633931
 10
319937.592551607
 20
5674830.51466039
 10
319937.773960181
 20
5674830.43467667
 10
319943.64500132
 20
5674828.15514066
 10
319939.678750214
 20
5674818.16717368
 10
319935.061077408
 20
5674806.65951603
  0
LWPOLYLINE
  5
201FF
  8
Eigentuemer
100
AcDbEntity
100
AcDbPolyline
 70
0
 90
5
 62
7
370
0
 10
319857.311011541
 20
5674802.72031785
 10
319857.311011541
 20
5674807.51934102
 10
319858.976672088
 20
5674806.88946923
 10
319857.987170773
 20
5674804.40997392
 10
319857.311011541
 20
5674802.72031785
  0
LWPOLYLINE
  5
20200
  8
Eigentuemer
100
AcDbEntity
100
AcDbPolyline
 70
0
 90
9
 62
7
370
0
 10
320050.832731325
 20
5674798.5111746
 10
320054.287740085
 20
5674807.31938172
 10
320055.739008681
 20
5674811.04862264
 10
320057.454144294
 20
5674815.42773129
 10
320057.866436509
 20
5674816.46751964
 10
320057.882928198
 20
5674816.45752168
 10
320057.882928198
 20
5674799.29101587
 10
320056.662543242
 20
5674796.21164267
 10
320050.832731325
 20
5674798.5111746
  0
LWPOLYLINE
  5
20201
  8
Eigentuemer
100
AcDbEntity
100
AcDbPolyline
 70
0
 90
8
 62
7
370
0
 10
319949.614992591
 20
5674941.91198578
 10
319970.188374109
 20
5674941.91198578
 10
319969.94099878
 20
5674940.96217911
 10
319969.701869296
 20
5674941.0221669
 10
319968.59692616
 20
5674936.81302366
 10
319951.569257689
 20
5674940.88219539
 10
319950.068514027
 20
5674941.56205701
 10
319949.614992591
 20
5674941.91198578
  0
LWPOLYLINE
  5
20202
  8
Eigentuemer
100
AcDbEntity
100
AcDbPolyline
 70
0
 90
4
 62
7
370
0
 10
319881.331155975
 20
5674941.91198578
 10
319857.311011541
 20
5674920.38636726
 10
319857.311011541
 20
5674941.91198578
 10
319881.331155975
 20
5674941.91198578
  0
LWPOLYLINE
  5
20203
  8
Eigentuemer
100
AcDbEntity
100
AcDbPolyline
 70
0
 90
14
 62
7
370
0
 10
320030.003728633
 20
5674877.50509562
 10
320033.986471428
 20
5674887.48306463
 10
320041.993186239
 20
5674884.25372196
 10
320045.712062017
 20
5674882.74402925
 10
320048.515649077
 20
5674881.61425921
 10
320057.882928198
 20
5674877.8250305
 10
320057.882928198
 20
5674876.0553907
 10
320054.568098791
 20
5674867.61710829
 10
320044.590627192
 20
5674871.6362902
 10
320040.4594592
 20
5674873.29595238
 10
320039.338024376
 20
5674873.7458608
 10
320036.748829267
 20
5674874.78564916
 10
320035.668623664
 20
5674875.22555961
 10
320030.003728633
 20
5674877.50509562
  0
LWPOLYLINE
  5
20204
  8
Eigentuemer
100
AcDbEntity
100
AcDbPolyline
 70
0
 90
12
 62
7
370
0
 10
319865.581593369
 20
5674824.37590991
 10
319860.337236397
 20
5674826.09555988
 10
319857.311011541
 20
5674827.01537266
 10
319857.311011541
 20
5674829.74481709
 10
319859.13334313
 20
5674829.18493105
 10
319869.655040452
 20
5674857.35919626
 10
319878.23071852
 20
5674853.96988614
 10
319875.262214573
 20
5674846.38143075
 10
319867.733758731
 20
5674826.65544592
 10
319866.975141056
 20
5674826.92539097
 10
319865.919672986
 20
5674824.2659323
 10
319865.581593369
 20
5674824.37590991
  0
LWPOLYLINE
  5
20205
  8
Eigentuemer
100
AcDbEntity
100
AcDbPolyline
 70
0
 90
10
 62
7
370
0
 10
320040.253313093
 20
5674917.05704494
 10
320044.541152127
 20
5674936.7730318
 10
320046.346992027
 20
5674935.84322106
 10
320047.468426852
 20
5674934.23354871
 10
320047.48491854
 20
5674931.86403102
 10
320057.882928198
 20
5674930.34434034
 10
320057.882928198
 20
5674913.81770429
 10
320053.059109284
 20
5674914.49756591
 10
320044.491677061
 20
5674916.1272342
 10
320040.253313093
 20
5674917.05704494
  0
LWPOLYLINE
  5
20206
  8
Eigentuemer
100
AcDbEntity
100
AcDbPolyline
 70
0
 90
13
 62
7
370
0
 10
319986.844979587
 20
5674931.32414091
 10
319987.133584138
 20
5674932.38392519
 10
319989.698041714
 20
5674941.91198578
 10
319989.970154575
 20
5674941.91198578
 10
319993.796226329
 20
5674940.86219946
 10
319993.812718017
 20
5674940.91218929
 10
319994.084830879
 20
5674941.91198578
 10
320008.836646325
 20
5674941.91198578
 10
320017.923566739
 20
5674939.45248641
 10
320016.571248274
 20
5674934.6934551
 10
320013.528531729
 20
5674923.99563261
 10
319990.926672514
 20
5674930.22436477
 10
319986.844979587
 20
5674931.32414091
  0
LWPOLYLINE
  5
20207
  8
Eigentuemer
100
AcDbEntity
100
AcDbPolyline
 70
0
 90
5
 62
7
370
0
 10
320024.784109193
 20
5674794.59197235
 10
320018.67393857
 20
5674794.59197235
 10
320019.952044436
 20
5674797.9412906
 10
320025.254122318
 20
5674795.85171593
 10
320024.784109193
 20
5674794.59197235
  0
LWPOLYLINE
  5
20208
  8
Eigentuemer
100
AcDbEntity
100
AcDbPolyline
 70
0
 90
5
 62
7
370
0
 10
319884.101759658
 20
5674794.59197235
 10
319875.567310812
 20
5674794.59197235
 10
319876.878400055
 20
5674797.79132113
 10
319884.505806029
 20
5674795.61176477
 10
319884.101759658
 20
5674794.59197235
  0
LWPOLYLINE
  5
20209
  8
Eigentuemer
100
AcDbEntity
100
AcDbPolyline
 70
0
 90
5
 62
7
370
0
 10
319857.311011541
 20
5674860.01865494
 10
319857.311011541
 20
5674862.23820315
 10
319859.19106404
 20
5674861.49835375
 10
319858.448938053
 20
5674859.55874855
 10
319857.311011541
 20
5674860.01865494
  0
LWPOLYLINE
  5
2020A
  8
Eigentuemer
100
AcDbEntity
100
AcDbPolyline
 70
0
 90
8
 62
7
370
0
 10
319980.30602506
 20
5674794.59197235
 10
319973.363024163
 20
5674794.59197235
 10
319974.525688209
 20
5674797.84131095
 10
319977.040670719
 20
5674804.90987217
 10
319980.240058306
 20
5674813.90804062
 10
319986.226541265
 20
5674811.4885331
 10
319982.24379847
 20
5674800.12084696
 10
319980.30602506
 20
5674794.59197235
  0
LWPOLYLINE
  5
2020B
  8
Eigentuemer
100
AcDbEntity
100
AcDbPolyline
 70
0
 90
4
 62
7
370
0
 10
319902.176650355
 20
5674794.59197235
 10
319901.780849829
 20
5674794.59197235
 10
319901.822079051
 20
5674794.70194996
 10
319902.176650355
 20
5674794.59197235
  0
LWPOLYLINE
  5
2020C
  8
Eigentuemer
100
AcDbEntity
100
AcDbPolyline
 70
0
 90
7
 62
7
370
0
 10
320004.779690931
 20
5674794.59197235
 10
319997.036843137
 20
5674794.59197235
 10
319997.605806394
 20
5674796.17165081
 10
319998.11704874
 20
5674797.61135776
 10
320001.316436327
 20
5674805.45976024
 10
320007.847145009
 20
5674802.85029139
 10
320004.779690931
 20
5674794.59197235
  0
LWPOLYLINE
  5
2020D
  8
Eigentuemer
100
AcDbEntity
100
AcDbPolyline
 70
0
 90
12
 62
7
370
0
 10
319923.648828902
 20
5674795.89170779
 10
319923.121094867
 20
5674794.59197235
 10
319917.151103597
 20
5674794.59197235
 10
319923.747779034
 20
5674810.78867556
 10
319924.473413332
 20
5674812.61830314
 10
319926.130828035
 20
5674816.75746063
 10
319929.140561203
 20
5674824.32592009
 10
319932.562586586
 20
5674832.49425745
 10
319937.592551607
 20
5674830.51466039
 10
319934.318951421
 20
5674822.26633931
 10
319933.618054656
 20
5674820.50669748
 10
319923.648828902
 20
5674795.89170779
  0
LWPOLYLINE
  5
2020E
  8
Eigentuemer
100
AcDbEntity
100
AcDbPolyline
 70
0
 90
4
 62
7
370
0
 10
320028.437018216
 20
5674794.59197235
 10
320024.784109193
 20
5674794.59197235
 10
320025.254122318
 20
5674795.85171593
 10
320028.437018216
 20
5674794.59197235
  0
LWPOLYLINE
  5
2020F
  8
Eigentuemer
100
AcDbEntity
100
AcDbPolyline
 70
0
 90
4
 62
7
370
0
 10
319888.224681806
 20
5674794.59197235
 10
319884.101759658
 20
5674794.59197235
 10
319884.505806029
 20
5674795.61176477
 10
319888.224681806
 20
5674794.59197235
  0
LWPOLYLINE
  5
20210
  8
Eigentuemer
100
AcDbEntity
100
AcDbPolyline
 70
0
 90
8
 62
7
370
0
 10
319980.30602506
 20
5674794.59197235
 10
319973.363024163
 20
5674794.59197235
 10
319974.525688209
 20
5674797.84131095
 10
319977.040670719
 20
5674804.90987217
 10
319980.240058306
 20
5674813.90804062
 10
319986.226541265
 20
5674811.4885331
 10
319982.24379847
 20
5674800.12084696
 10
319980.30602506
 20
5674794.59197235
  0
LWPOLYLINE
  5
20211
  8
Eigentuemer
100
AcDbEntity
100
AcDbPolyline
 70
0
 90
12
 62
7
370
0
 10
319865.581593369
 20
5674824.37590991
 10
319860.337236397
 20
5674826.09555988
 10
319857.311011541
 20
5674827.01537266
 10
319857.311011541
 20
5674829.74481709
 10
319859.13334313
 20
5674829.18493105
 10
319869.655040452
 20
5674857.35919626
 10
319878.23071852
 20
5674853.96988614
 10
319875.262214573
 20
5674846.38143075
 10
319867.733758731
 20
5674826.65544592
 10
319866.975141056
 20
5674826.92539097
 10
319865.919672986
 20
5674824.2659323
 10
319865.581593369
 20
5674824.37590991
  0
LWPOLYLINE
  5
20212
  8
Eigentuemer
100
AcDbEntity
100
AcDbPolyline
 70
0
 90
17
 62
7
370
0
 10
320030.514970979
 20
5674806.45955673
 10
320031.017967481
 20
5674807.71930032
 10
320033.904012985
 20
5674815.05780659
 10
320038.900994628
 20
5674827.76522003
 10
320040.706834529
 20
5674832.3642839
 10
320041.39948545
 20
5674834.1339237
 10
320043.963943026
 20
5674840.65259684
 10
320046.544892291
 20
5674847.22125981
 10
320050.643076906
 20
5674857.62914131
 10
320051.434677958
 20
5674859.6587282
 10
320054.568098791
 20
5674867.61710829
 10
320057.882928198
 20
5674876.0553907
 10
320057.882928198
 20
5674835.23369984
 10
320052.572604471
 20
5674821.67645938
 10
320051.912936927
 20
5674820.00679923
 10
320044.466939528
 20
5674801.02066381
 10
320030.514970979
 20
5674806.45955673
  0
LWPOLYLINE
  5
20213
  8
Eigentuemer
100
AcDbEntity
100
AcDbPolyline
 70
0
 90
8
 62
7
370
0
 10
319857.311011541
 20
5674794.59197235
 10
319857.311011541
 20
5674802.72031785
 10
319857.987170773
 20
5674804.40997392
 10
319867.395679115
 20
5674801.21062514
 10
319867.107074564
 20
5674800.4807737
 10
319866.414423643
 20
5674798.7411278
 10
319864.765254784
 20
5674794.59197235
 10
319857.311011541
 20
5674794.59197235
  0
LWPOLYLINE
  5
20214
  8
Eigentuemer
100
AcDbEntity
100
AcDbPolyline
 70
0
 90
5
 62
7
370
0
 10
319857.311011541
 20
5674860.01865494
 10
319857.311011541
 20
5674862.23820315
 10
319859.19106404
 20
5674861.49835375
 10
319858.448938053
 20
5674859.55874855
 10
319857.311011541
 20
5674860.01865494
  0
LWPOLYLINE
  5
20215
  8
Eigentuemer
100
AcDbEntity
100
AcDbPolyline
 70
0
 90
5
 62
7
370
0
 10
319989.970154575
 20
5674941.91198578
 10
319994.084830879
 20
5674941.91198578
 10
319993.812718017
 20
5674940.91218929
 10
319993.796226329
 20
5674940.86219946
 10
319989.970154575
 20
5674941.91198578
  0
LWPOLYLINE
  5
20216
  8
Eigentuemer
100
AcDbEntity
100
AcDbPolyline
 70
0
 90
6
 62
7
370
0
 10
319864.765254784
 20
5674794.59197235
 10
319866.414423643
 20
5674798.7411278
 10
319867.107074564
 20
5674800.4807737
 10
319876.878400055
 20
5674797.79132113
 10
319875.567310812
 20
5674794.59197235
 10
319864.765254784
 20
5674794.59197235
  0
LWPOLYLINE
  5
20217
  8
Eigentuemer
100
AcDbEntity
100
AcDbPolyline
 70
0
 90
10
 62
7
370
0
 10
320057.882928198
 20
5674819.56688877
 10
320057.882928198
 20
5674816.45752168
 10
320057.866436509
 20
5674816.46751964
 10
320055.747254525
 20
5674817.31734666
 10
320056.143055051
 20
5674818.32714112
 10
320051.912936927
 20
5674820.00679923
 10
320052.572604471
 20
5674821.67645938
 10
320052.613833693
 20
5674821.66646141
 10
320056.794476751
 20
5674819.99680127
 10
320057.882928198
 20
5674819.56688877
  0
LWPOLYLINE
  5
20218
  8
Eigentuemer
100
AcDbEntity
100
AcDbPolyline
 70
0
 90
7
 62
7
370
0
 10
319997.036843137
 20
5674794.59197235
 10
319988.823982218
 20
5674794.59197235
 10
319994.299222831
 20
5674808.25919042
 10
320001.316436327
 20
5674805.45976024
 10
319998.11704874
 20
5674797.61135776
 10
319997.605806394
 20
5674796.17165081
 10
319997.036843137
 20
5674794.59197235
  0
LWPOLYLINE
  5
20219
  8
Eigentuemer
100
AcDbEntity
100
AcDbPolyline
 70
0
 90
7
 62
7
370
0
 10
319891.729165632
 20
5674794.59197235
 10
319888.224681806
 20
5674794.59197235
 10
319884.505806029
 20
5674795.61176477
 10
319884.744935514
 20
5674796.2016447
 10
319885.990058002
 20
5674799.35100366
 10
319892.834108768
 20
5674797.49138218
 10
319891.729165632
 20
5674794.59197235
  0
LWPOLYLINE
  5
2021A
  8
Eigentuemer
100
AcDbEntity
100
AcDbPolyline
 70
0
 90
7
 62
7
370
0
 10
319970.188374109
 20
5674941.91198578
 10
319985.286515015
 20
5674941.91198578
 10
319983.027153678
 20
5674933.36372576
 10
319968.59692616
 20
5674936.81302366
 10
319969.701869296
 20
5674941.0221669
 10
319969.94099878
 20
5674940.96217911
 10
319970.188374109
 20
5674941.91198578
  0
LWPOLYLINE
  5
2021B
  8
Eigentuemer
100
AcDbEntity
100
AcDbPolyline
 70
0
 90
10
 62
7
370
0
 10
320036.971467063
 20
5674894.96154241
 10
320039.742070746
 20
5674901.90013008
 10
320048.845482849
 20
5674900.10049639
 10
320050.337980667
 20
5674899.88054116
 10
320054.782490742
 20
5674899.25066937
 10
320057.882928198
 20
5674898.82075688
 10
320057.882928198
 20
5674886.58324779
 10
320050.923435612
 20
5674889.37268001
 10
320047.146838924
 20
5674890.88237271
 10
320036.971467063
 20
5674894.96154241
  0
LWPOLYLINE
  5
2021C
  8
Eigentuemer
100
AcDbEntity
100
AcDbPolyline
 70
0
 90
12
 62
7
370
0
 10
319865.581593369
 20
5674824.37590991
 10
319860.337236397
 20
5674826.09555988
 10
319857.311011541
 20
5674827.01537266
 10
319857.311011541
 20
5674829.74481709
 10
319859.13334313
 20
5674829.18493105
 10
319869.655040452
 20
5674857.35919626
 10
319878.23071852
 20
5674853.96988614
 10
319875.262214573
 20
5674846.38143075
 10
319867.733758731
 20
5674826.65544592
 10
319866.975141056
 20
5674826.92539097
 10
319865.919672986
 20
5674824.2659323
 10
319865.581593369
 20
5674824.37590991
  0
LWPOLYLINE
  5
2021D
  8
Eigentuemer
100
AcDbEntity
100
AcDbPolyline
 70
0
 90
9
 62
7
370
0
 10
319973.363024163
 20
5674794.59197235
 10
319967.277591073
 20
5674794.59197235
 10
319967.607424845
 20
5674795.50178716
 10
319972.084918297
 20
5674807.97924741
 10
319974.954472112
 20
5674815.95762343
 10
319980.240058306
 20
5674813.90804062
 10
319977.040670719
 20
5674804.90987217
 10
319974.525688209
 20
5674797.84131095
 10
319973.363024163
 20
5674794.59197235
  0
LWPOLYLINE
  5
2021E
  8
Eigentuemer
100
AcDbEntity
100
AcDbPolyline
 70
0
 90
9
 62
7
370
0
 10
319950.332381044
 20
5674800.8506984
 10
319947.792661001
 20
5674794.59197235
 10
319937.633780828
 20
5674794.59197235
 10
319946.308409028
 20
5674816.60749115
 10
319950.109743248
 20
5674825.63565349
 10
319951.618732754
 20
5674825.0357756
 10
319959.105959375
 20
5674822.1263678
 10
319955.288133466
 20
5674812.93823802
 10
319950.332381044
 20
5674800.8506984
  0
LWPOLYLINE
  5
2021F
  8
Eigentuemer
100
AcDbEntity
100
AcDbPolyline
 70
0
 90
18
 62
7
370
0
 10
319919.080631162
 20
5674837.82317276
 10
319919.509415066
 20
5674837.65320736
 10
319927.375950524
 20
5674834.55383822
 10
319924.019891896
 20
5674826.36550494
 10
319923.302503442
 20
5674824.59586514
 10
319921.03489626
 20
5674819.02699867
 10
319911.098653884
 20
5674794.59197235
 10
319902.176650355
 20
5674794.59197235
 10
319901.822079051
 20
5674794.70194996
 10
319902.077700224
 20
5674795.33182175
 10
319903.364051934
 20
5674798.56116443
 10
319907.165386154
 20
5674808.04923316
 10
319909.251584761
 20
5674813.2581729
 10
319912.450972348
 20
5674821.26654281
 10
319912.624135078
 20
5674821.69645531
 10
319914.149616273
 20
5674825.50567995
 10
319915.798785132
 20
5674829.62484151
 10
319919.080631162
 20
5674837.82317276
  0
LWPOLYLINE
  5
20220
  8
Eigentuemer
100
AcDbEntity
100
AcDbPolyline
 70
0
 90
5
 62
7
370
0
 10
320018.67393857
 20
5674794.59197235
 10
320012.64622639
 20
5674794.59197235
 10
320014.757162529
 20
5674800.11084899
 10
320019.952044436
 20
5674797.9412906
 10
320018.67393857
 20
5674794.59197235
  0
LWPOLYLINE
  5
20221
  8
Eigentuemer
100
AcDbEntity
100
AcDbPolyline
 70
0
 90
12
 62
7
370
0
 10
320057.882928198
 20
5674930.34434034
 10
320047.48491854
 20
5674931.86403102
 10
320047.468426852
 20
5674934.23354871
 10
320046.346992027
 20
5674935.84322106
 10
320044.541152127
 20
5674936.7730318
 10
320042.545657807
 20
5674936.73303994
 10
320040.879997259
 20
5674935.53328415
 10
320040.05541283
 20
5674933.46370541
 10
320017.923566739
 20
5674939.45248641
 10
320008.836646325
 20
5674941.91198578
 10
320057.882928198
 20
5674941.91198578
 10
320057.882928198
 20
5674930.34434034
  0
LWPOLYLINE
  5
20222
  8
Eigentuemer
100
AcDbEntity
100
AcDbPolyline
 70
0
 90
4
 62
7
370
0
 10
320057.882928198
 20
5674799.29101587
 10
320057.882928198
 20
5674795.73174035
 10
320056.662543242
 20
5674796.21164267
 10
320057.882928198
 20
5674799.29101587
  0
LWPOLYLINE
  5
20223
  8
Eigentuemer
100
AcDbEntity
100
AcDbPolyline
 70
0
 90
5
 62
7
370
0
 10
320018.67393857
 20
5674794.59197235
 10
320012.64622639
 20
5674794.59197235
 10
320014.757162529
 20
5674800.11084899
 10
320019.952044436
 20
5674797.9412906
 10
320018.67393857
 20
5674794.59197235
  0
LWPOLYLINE
  5
20224
  8
Eigentuemer
100
AcDbEntity
100
AcDbPolyline
 70
0
 90
10
 62
7
370
0
 10
320057.882928198
 20
5674819.56688877
 10
320057.882928198
 20
5674816.45752168
 10
320057.866436509
 20
5674816.46751964
 10
320055.747254525
 20
5674817.31734666
 10
320056.143055051
 20
5674818.32714112
 10
320051.912936927
 20
5674820.00679923
 10
320052.572604471
 20
5674821.67645938
 10
320052.613833693
 20
5674821.66646141
 10
320056.794476751
 20
5674819.99680127
 10
320057.882928198
 20
5674819.56688877
  0
LWPOLYLINE
  5
20225
  8
Eigentuemer
100
AcDbEntity
100
AcDbPolyline
 70
0
 90
10
 62
7
370
0
 10
320036.971467063
 20
5674894.96154241
 10
320039.742070746
 20
5674901.90013008
 10
320048.845482849
 20
5674900.10049639
 10
320050.337980667
 20
5674899.88054116
 10
320054.782490742
 20
5674899.25066937
 10
320057.882928198
 20
5674898.82075688
 10
320057.882928198
 20
5674886.58324779
 10
320050.923435612
 20
5674889.37268001
 10
320047.146838924
 20
5674890.88237271
 10
320036.971467063
 20
5674894.96154241
  0
LWPOLYLINE
  5
20226
  8
Eigentuemer
100
AcDbEntity
100
AcDbPolyline
 70
0
 90
5
 62
7
370
0
 10
319901.780849829
 20
5674794.59197235
 10
319891.729165632
 20
5674794.59197235
 10
319892.834108768
 20
5674797.49138218
 10
319901.822079051
 20
5674794.70194996
 10
319901.780849829
 20
5674794.59197235
  0
LWPOLYLINE
  5
20227
  8
Eigentuemer
100
AcDbEntity
100
AcDbPolyline
 70
0
 90
10
 62
7
370
0
 10
319967.607424845
 20
5674795.50178716
 10
319967.277591073
 20
5674794.59197235
 10
319960.788111612
 20
5674794.59197235
 10
319961.893054747
 20
5674797.73133334
 10
319962.808343464
 20
5674800.29081236
 10
319966.510727553
 20
5674810.1488058
 10
319969.611165008
 20
5674818.0471981
 10
319974.954472112
 20
5674815.95762343
 10
319972.084918297
 20
5674807.97924741
 10
319967.607424845
 20
5674795.50178716
  0
LWPOLYLINE
  5
20228
  8
Eigentuemer
100
AcDbEntity
100
AcDbPolyline
 70
0
 90
9
 62
7
370
0
 10
319946.308409028
 20
5674816.60749115
 10
319937.633780828
 20
5674794.59197235
 10
319930.031112387
 20
5674794.59197235
 10
319935.061077408
 20
5674806.65951603
 10
319939.678750214
 20
5674818.16717368
 10
319943.64500132
 20
5674828.15514066
 10
319947.025797482
 20
5674826.82541132
 10
319950.109743248
 20
5674825.63565349
 10
319946.308409028
 20
5674816.60749115
  0
LWPOLYLINE
  5
20229
  8
Eigentuemer
100
AcDbEntity
100
AcDbPolyline
 70
0
 90
12
 62
7
370
0
 10
319865.581593369
 20
5674824.37590991
 10
319860.337236397
 20
5674826.09555988
 10
319857.311011541
 20
5674827.01537266
 10
319857.311011541
 20
5674829.74481709
 10
319859.13334313
 20
5674829.18493105
 10
319869.655040452
 20
5674857.35919626
 10
319878.23071852
 20
5674853.96988614
 10
319875.262214573
 20
5674846.38143075
 10
319867.733758731
 20
5674826.65544592
 10
319866.975141056
 20
5674826.92539097
 10
319865.919672986
 20
5674824.2659323
 10
319865.581593369
 20
5674824.37590991
  0
LWPOLYLINE
  5
2022A
  8
Eigentuemer
100
AcDbEntity
100
AcDbPolyline
 70
0
 90
5
 62
7
370
0
 10
319983.027153678
 20
5674933.36372576
 10
319985.286515015
 20
5674941.91198578
 10
319989.698041714
 20
5674941.91198578
 10
319987.133584138
 20
5674932.38392519
 10
319983.027153678
 20
5674933.36372576
  0
LWPOLYLINE
  5
2022B
  8
Eigentuemer
100
AcDbEntity
100
AcDbPolyline
 70
0
 90
7
 62
7
370
0
 10
319997.036843137
 20
5674794.59197235
 10
319988.823982218
 20
5674794.59197235
 10
319994.299222831
 20
5674808.25919042
 10
320001.316436327
 20
5674805.45976024
 10
319998.11704874
 20
5674797.61135776
 10
319997.605806394
 20
5674796.17165081
 10
319997.036843137
 20
5674794.59197235
  0
LWPOLYLINE
  5
2022C
  8
Eigentuemer
100
AcDbEntity
100
AcDbPolyline
 70
0
 90
10
 62
7
370
0
 10
320036.971467063
 20
5674894.96154241
 10
320039.742070746
 20
5674901.90013008
 10
320048.845482849
 20
5674900.10049639
 10
320050.337980667
 20
5674899.88054116
 10
320054.782490742
 20
5674899.25066937
 10
320057.882928198
 20
5674898.82075688
 10
320057.882928198
 20
5674886.58324779
 10
320050.923435612
 20
5674889.37268001
 10
320047.146838924
 20
5674890.88237271
 10
320036.971467063
 20
5674894.96154241
  0
LWPOLYLINE
  5
2022D
  8
Eigentuemer
100
AcDbEntity
100
AcDbPolyline
 70
0
 90
12
 62
7
370
0
 10
319865.581593369
 20
5674824.37590991
 10
319860.337236397
 20
5674826.09555988
 10
319857.311011541
 20
5674827.01537266
 10
319857.311011541
 20
5674829.74481709
 10
319859.13334313
 20
5674829.18493105
 10
319869.655040452
 20
5674857.35919626
 10
319878.23071852
 20
5674853.96988614
 10
319875.262214573
 20
5674846.38143075
 10
319867.733758731
 20
5674826.65544592
 10
319866.975141056
 20
5674826.92539097
 10
319865.919672986
 20
5674824.2659323
 10
319865.581593369
 20
5674824.37590991
  0
LWPOLYLINE
  5
2022E
  8
Eigentuemer
100
AcDbEntity
100
AcDbPolyline
 70
0
 90
6
 62
7
370
0
 10
320057.882928198
 20
5674835.23369984
 10
320057.882928198
 20
5674819.56688877
 10
320056.794476751
 20
5674819.99680127
 10
320052.613833693
 20
5674821.66646141
 10
320052.572604471
 20
5674821.67645938
 10
320057.882928198
 20
5674835.23369984
  0
LWPOLYLINE
  5
2022F
  8
Eigentuemer
100
AcDbEntity
100
AcDbPolyline
 70
0
 90
7
 62
7
370
0
 10
319997.036843137
 20
5674794.59197235
 10
319988.823982218
 20
5674794.59197235
 10
319994.299222831
 20
5674808.25919042
 10
320001.316436327
 20
5674805.45976024
 10
319998.11704874
 20
5674797.61135776
 10
319997.605806394
 20
5674796.17165081
 10
319997.036843137
 20
5674794.59197235
  0
LWPOLYLINE
  5
20230
  8
Eigentuemer
100
AcDbEntity
100
AcDbPolyline
 70
0
 90
4
 62
7
370
0
 10
319926.666807915
 20
5674794.59197235
 10
319923.121094867
 20
5674794.59197235
 10
319923.648828902
 20
5674795.89170779
 10
319926.666807915
 20
5674794.59197235
  0
LWPOLYLINE
  5
20231
  8
Eigentuemer
100
AcDbEntity
100
AcDbPolyline
 70
0
 90
10
 62
7
370
0
 10
319960.788111612
 20
5674794.59197235
 10
319947.792661001
 20
5674794.59197235
 10
319950.332381044
 20
5674800.8506984
 10
319955.288133466
 20
5674812.93823802
 10
319959.105959375
 20
5674822.1263678
 10
319969.611165008
 20
5674818.0471981
 10
319966.510727553
 20
5674810.1488058
 10
319962.808343464
 20
5674800.29081236
 10
319961.893054747
 20
5674797.73133334
 10
319960.788111612
 20
5674794.59197235
  0
LWPOLYLINE
  5
20232
  8
Eigentuemer
100
AcDbEntity
100
AcDbPolyline
 70
0
 90
12
 62
7
370
0
 10
319923.747779034
 20
5674810.78867556
 10
319917.151103597
 20
5674794.59197235
 10
319911.098653884
 20
5674794.59197235
 10
319921.03489626
 20
5674819.02699867
 10
319923.302503442
 20
5674824.59586514
 10
319924.019891896
 20
5674826.36550494
 10
319927.375950524
 20
5674834.55383822
 10
319932.562586586
 20
5674832.49425745
 10
319929.140561203
 20
5674824.32592009
 10
319926.130828035
 20
5674816.75746063
 10
319924.473413332
 20
5674812.61830314
 10
319923.747779034
 20
5674810.78867556
  0
LWPOLYLINE
  5
20233
  8
Eigentuemer
100
AcDbEntity
100
AcDbPolyline
 70
0
 90
10
 62
7
370
0
 10
320033.986471428
 20
5674887.48306463
 10
320036.971467063
 20
5674894.96154241
 10
320047.146838924
 20
5674890.88237271
 10
320050.923435612
 20
5674889.37268001
 10
320057.882928198
 20
5674886.58324779
 10
320057.882928198
 20
5674877.8250305
 10
320048.515649077
 20
5674881.61425921
 10
320045.712062017
 20
5674882.74402925
 10
320041.993186239
 20
5674884.25372196
 10
320033.986471428
 20
5674887.48306463
  0
LWPOLYLINE
  5
20234
  8
Eigentuemer
100
AcDbEntity
100
AcDbPolyline
 70
0
 90
12
 62
7
370
0
 10
319865.581593369
 20
5674824.37590991
 10
319860.337236397
 20
5674826.09555988
 10
319857.311011541
 20
5674827.01537266
 10
319857.311011541
 20
5674829.74481709
 10
319859.13334313
 20
5674829.18493105
 10
319869.655040452
 20
5674857.35919626
 10
319878.23071852
 20
5674853.96988614
 10
319875.262214573
 20
5674846.38143075
 10
319867.733758731
 20
5674826.65544592
 10
319866.975141056
 20
5674826.92539097
 10
319865.919672986
 20
5674824.2659323
 10
319865.581593369
 20
5674824.37590991
  0
LWPOLYLINE
  5
20235
  8
Eigentuemer
100
AcDbEntity
100
AcDbPolyline
 70
0
 90
7
 62
7
370
0
 10
319997.036843137
 20
5674794.59197235
 10
319988.823982218
 20
5674794.59197235
 10
319994.299222831
 20
5674808.25919042
 10
320001.316436327
 20
5674805.45976024
 10
319998.11704874
 20
5674797.61135776
 10
319997.605806394
 20
5674796.17165081
 10
319997.036843137
 20
5674794.59197235
  0
LWPOLYLINE
  5
20236
  8
Eigentuemer
100
AcDbEntity
100
AcDbPolyline
 70
0
 90
6
 62
7
370
0
 10
320057.882928198
 20
5674835.23369984
 10
320057.882928198
 20
5674819.56688877
 10
320056.794476751
 20
5674819.99680127
 10
320052.613833693
 20
5674821.66646141
 10
320052.572604471
 20
5674821.67645938
 10
320057.882928198
 20
5674835.23369984
  0
LWPOLYLINE
  5
20237
  8
Eigentuemer
100
AcDbEntity
100
AcDbPolyline
 70
0
 90
12
 62
7
370
0
 10
319923.747779034
 20
5674810.78867556
 10
319917.151103597
 20
5674794.59197235
 10
319911.098653884
 20
5674794.59197235
 10
319921.03489626
 20
5674819.02699867
 10
319923.302503442
 20
5674824.59586514
 10
319924.019891896
 20
5674826.36550494
 10
319927.375950524
 20
5674834.55383822
 10
319932.562586586
 20
5674832.49425745
 10
319929.140561203
 20
5674824.32592009
 10
319926.130828035
 20
5674816.75746063
 10
319924.473413332
 20
5674812.61830314
 10
319923.747779034
 20
5674810.78867556
  0
LWPOLYLINE
  5
20238
  8
Eigentuemer
100
AcDbEntity
100
AcDbPolyline
 70
0
 90
12
 62
7
370
0
 10
319865.581593369
 20
5674824.37590991
 10
319860.337236397
 20
5674826.09555988
 10
319857.311011541
 20
5674827.01537266
 10
319857.311011541
 20
5674829.74481709
 10
319859.13334313
 20
5674829.18493105
 10
319869.655040452
 20
5674857.35919626
 10
319878.23071852
 20
5674853.96988614
 10
319875.262214573
 20
5674846.38143075
 10
319867.733758731
 20
5674826.65544592
 10
319866.975141056
 20
5674826.92539097
 10
319865.919672986
 20
5674824.2659323
 10
319865.581593369
 20
5674824.37590991
  0
LWPOLYLINE
  5
20239
  8
Eigentuemer
100
AcDbEntity
100
AcDbPolyline
 70
0
 90
6
 62
7
370
0
 10
320057.882928198
 20
5674835.23369984
 10
320057.882928198
 20
5674819.56688877
 10
320056.794476751
 20
5674819.99680127
 10
320052.613833693
 20
5674821.66646141
 10
320052.572604471
 20
5674821.67645938
 10
320057.882928198
 20
5674835.23369984
  0
LWPOLYLINE
  5
2023A
  8
Eigentuemer
100
AcDbEntity
100
AcDbPolyline
 70
0
 90
7
 62
7
370
0
 10
319997.036843137
 20
5674794.59197235
 10
319988.823982218
 20
5674794.59197235
 10
319994.299222831
 20
5674808.25919042
 10
320001.316436327
 20
5674805.45976024
 10
319998.11704874
 20
5674797.61135776
 10
319997.605806394
 20
5674796.17165081
 10
319997.036843137
 20
5674794.59197235
  0
LWPOLYLINE
  5
2023B
  8
Eigentuemer
100
AcDbEntity
100
AcDbPolyline
 70
0
 90
33
 62
7
370
0
 10
319913.423981975
 20
5674933.02379495
 10
319914.553662644
 20
5674934.01359348
 10
319927.36770468
 20
5674941.91198578
 10
319949.614992591
 20
5674941.91198578
 10
319950.068514027
 20
5674941.56205701
 10
319951.569257689
 20
5674940.88219539
 10
319951.923828993
 20
5674940.73222592
 10
319956.112717896
 20
5674939.62245181
 10
319968.448500963
 20
5674936.27313356
 10
319982.779778349
 20
5674932.42391705
 10
319986.844979587
 20
5674931.32414091
 10
319990.926672514
 20
5674930.22436477
 10
320013.528531729
 20
5674923.99563261
 10
320036.344782896
 20
5674917.98685568
 10
320040.253313093
 20
5674917.05704494
 10
320044.491677061
 20
5674916.1272342
 10
320053.059109284
 20
5674914.49756591
 10
320057.882928198
 20
5674913.81770429
 10
320057.882928198
 20
5674898.82075688
 10
320054.782490742
 20
5674899.25066937
 10
320050.337980667
 20
5674899.88054116
 10
320048.845482849
 20
5674900.10049639
 10
320039.742070746
 20
5674901.90013008
 10
320034.242092601
 20
5674903.3198411
 10
320013.520285885
 20
5674908.66875235
 10
319994.389927118
 20
5674913.7577165
 10
319968.976234998
 20
5674920.51634081
 10
319950.785902481
 20
5674925.35535584
 10
319950.596248062
 20
5674925.40534566
 10
319943.174988195
 20
5674927.1049997
 10
319934.434393242
 20
5674929.22456827
 10
319915.848260198
 20
5674933.71365453
 10
319913.423981975
 20
5674933.02379495
  0
LWPOLYLINE
  5
2023C
  8
Eigentuemer
100
AcDbEntity
100
AcDbPolyline
 70
0
 90
5
 62
7
370
0
 10
320012.64622639
 20
5674794.59197235
 10
320004.779690931
 20
5674794.59197235
 10
320007.847145009
 20
5674802.85029139
 10
320014.757162529
 20
5674800.11084899
 10
320012.64622639
 20
5674794.59197235
  0
LWPOLYLINE
  5
2023D
  8
Eigentuemer
100
AcDbEntity
100
AcDbPolyline
 70
0
 90
12
 62
7
370
0
 10
319865.581593369
 20
5674824.37590991
 10
319860.337236397
 20
5674826.09555988
 10
319857.311011541
 20
5674827.01537266
 10
319857.311011541
 20
5674829.74481709
 10
319859.13334313
 20
5674829.18493105
 10
319869.655040452
 20
5674857.35919626
 10
319878.23071852
 20
5674853.96988614
 10
319875.262214573
 20
5674846.38143075
 10
319867.733758731
 20
5674826.65544592
 10
319866.975141056
 20
5674826.92539097
 10
319865.919672986
 20
5674824.2659323
 10
319865.581593369
 20
5674824.37590991
  0
LWPOLYLINE
  5
2023E
  8
Eigentuemer
100
AcDbEntity
100
AcDbPolyline
 70
0
 90
6
 62
7
370
0
 10
320057.882928198
 20
5674835.23369984
 10
320057.882928198
 20
5674819.56688877
 10
320056.794476751
 20
5674819.99680127
 10
320052.613833693
 20
5674821.66646141
 10
320052.572604471
 20
5674821.67645938
 10
320057.882928198
 20
5674835.23369984
  0
LWPOLYLINE
  5
2023F
  8
Eigentuemer
100
AcDbEntity
100
AcDbPolyline
 70
0
 90
6
 62
7
370
0
 10
319988.823982218
 20
5674794.59197235
 10
319980.30602506
 20
5674794.59197235
 10
319982.24379847
 20
5674800.12084696
 10
319986.226541265
 20
5674811.4885331
 10
319994.299222831
 20
5674808.25919042
 10
319988.823982218
 20
5674794.59197235
  0
LWPOLYLINE
  5
20240
  8
Eigentuemer
100
AcDbEntity
100
AcDbPolyline
 70
0
 90
17
 62
7
370
0
 10
319857.311011541
 20
5674875.12557996
 10
319857.311011541
 20
5674903.65977191
 10
319857.368732451
 20
5674903.70976174
 10
319899.719388755
 20
5674941.91198578
 10
319927.36770468
 20
5674941.91198578
 10
319914.553662644
 20
5674934.01359348
 10
319913.423981975
 20
5674933.02379495
 10
319898.103203273
 20
5674919.23660129
 10
319887.292901401
 20
5674909.49858344
 10
319880.663242587
 20
5674902.23006292
 10
319878.840910998
 20
5674899.53061239
 10
319874.033583773
 20
5674892.42205932
 10
319869.349944213
 20
5674883.77381964
 10
319865.886689608
 20
5674875.32553926
 10
319862.019388634
 20
5674876.77524418
 10
319860.848478744
 20
5674873.69587098
 10
319857.311011541
 20
5674875.12557996
  0
LWPOLYLINE
  5
20241
  8
Eigentuemer
100
AcDbEntity
100
AcDbPolyline
 70
0
 90
12
 62
7
370
0
 10
319865.581593369
 20
5674824.37590991
 10
319860.337236397
 20
5674826.09555988
 10
319857.311011541
 20
5674827.01537266
 10
319857.311011541
 20
5674829.74481709
 10
319859.13334313
 20
5674829.18493105
 10
319869.655040452
 20
5674857.35919626
 10
319878.23071852
 20
5674853.96988614
 10
319875.262214573
 20
5674846.38143075
 10
319867.733758731
 20
5674826.65544592
 10
319866.975141056
 20
5674826.92539097
 10
319865.919672986
 20
5674824.2659323
 10
319865.581593369
 20
5674824.37590991
  0
LWPOLYLINE
  5
20242
  8
Eigentuemer
100
AcDbEntity
100
AcDbPolyline
 70
0
 90
6
 62
7
370
0
 10
320057.882928198
 20
5674835.23369984
 10
320057.882928198
 20
5674819.56688877
 10
320056.794476751
 20
5674819.99680127
 10
320052.613833693
 20
5674821.66646141
 10
320052.572604471
 20
5674821.67645938
 10
320057.882928198
 20
5674835.23369984
  0
LWPOLYLINE
  5
20243
  8
Eigentuemer
100
AcDbEntity
100
AcDbPolyline
 70
0
 90
6
 62
7
370
0
 10
319857.311011541
 20
5674903.65977191
 10
319857.311011541
 20
5674920.38636726
 10
319881.331155975
 20
5674941.91198578
 10
319899.719388755
 20
5674941.91198578
 10
319857.368732451
 20
5674903.70976174
 10
319857.311011541
 20
5674903.65977191
  0
LWPOLYLINE
  5
20244
  8
Eigentuemer
100
AcDbEntity
100
AcDbPolyline
 70
0
 90
12
 62
7
370
0
 10
319865.581593369
 20
5674824.37590991
 10
319860.337236397
 20
5674826.09555988
 10
319857.311011541
 20
5674827.01537266
 10
319857.311011541
 20
5674829.74481709
 10
319859.13334313
 20
5674829.18493105
 10
319869.655040452
 20
5674857.35919626
 10
319878.23071852
 20
5674853.96988614
 10
319875.262214573
 20
5674846.38143075
 10
319867.733758731
 20
5674826.65544592
 10
319866.975141056
 20
5674826.92539097
 10
319865.919672986
 20
5674824.2659323
 10
319865.581593369
 20
5674824.37590991
  0
LWPOLYLINE
  5
20245
  8
Eigentuemer
100
AcDbEntity
100
AcDbPolyline
 70
0
 90
6
 62
7
370
0
 10
320057.882928198
 20
5674835.23369984
 10
320057.882928198
 20
5674819.56688877
 10
320056.794476751
 20
5674819.99680127
 10
320052.613833693
 20
5674821.66646141
 10
320052.572604471
 20
5674821.67645938
 10
320057.882928198
 20
5674835.23369984
  0
LWPOLYLINE
  5
20246
  8
Eigentuemer
100
AcDbEntity
100
AcDbPolyline
 70
0
 90
13
 62
7
370
0
 10
319857.311011541
 20
5674807.51934102
 10
319857.311011541
 20
5674827.01537266
 10
319860.337236397
 20
5674826.09555988
 10
319865.581593369
 20
5674824.37590991
 10
319865.919672986
 20
5674824.2659323
 10
319865.763001944
 20
5674823.89600759
 10
319863.058365015
 20
5674817.11738736
 10
319861.516392132
 20
5674813.2581729
 10
319861.029887318
 20
5674812.02842321
 10
319859.158080663
 20
5674807.35937358
 10
319859.034392998
 20
5674807.0394387
 10
319858.976672088
 20
5674806.88946923
 10
319857.311011541
 20
5674807.51934102
  0
LWPOLYLINE
  5
20247
  8
Eigentuemer
100
AcDbEntity
100
AcDbPolyline
 70
0
 90
6
 62
7
370
0
 10
320057.882928198
 20
5674835.23369984
 10
320057.882928198
 20
5674819.56688877
 10
320056.794476751
 20
5674819.99680127
 10
320052.613833693
 20
5674821.66646141
 10
320052.572604471
 20
5674821.67645938
 10
320057.882928198
 20
5674835.23369984
  0
LWPOLYLINE
  5
20248
  8
Eigentuemer
100
AcDbEntity
100
AcDbPolyline
 70
0
 90
13
 62
7
370
0
 10
319857.311011541
 20
5674807.51934102
 10
319857.311011541
 20
5674827.01537266
 10
319860.337236397
 20
5674826.09555988
 10
319865.581593369
 20
5674824.37590991
 10
319865.919672986
 20
5674824.2659323
 10
319865.763001944
 20
5674823.89600759
 10
319863.058365015
 20
5674817.11738736
 10
319861.516392132
 20
5674813.2581729
 10
319861.029887318
 20
5674812.02842321
 10
319859.158080663
 20
5674807.35937358
 10
319859.034392998
 20
5674807.0394387
 10
319858.976672088
 20
5674806.88946923
 10
319857.311011541
 20
5674807.51934102
  0
LWPOLYLINE
  5
20249
  8
Eigentuemer
100
AcDbEntity
100
AcDbPolyline
 70
0
 90
6
 62
7
370
0
 10
320057.882928198
 20
5674835.23369984
 10
320057.882928198
 20
5674819.56688877
 10
320056.794476751
 20
5674819.99680127
 10
320052.613833693
 20
5674821.66646141
 10
320052.572604471
 20
5674821.67645938
 10
320057.882928198
 20
5674835.23369984
  0
LWPOLYLINE
  5
2024A
  8
Eigentuemer
100
AcDbEntity
100
AcDbPolyline
 70
0
 90
13
 62
7
370
0
 10
319857.311011541
 20
5674807.51934102
 10
319857.311011541
 20
5674827.01537266
 10
319860.337236397
 20
5674826.09555988
 10
319865.581593369
 20
5674824.37590991
 10
319865.919672986
 20
5674824.2659323
 10
319865.763001944
 20
5674823.89600759
 10
319863.058365015
 20
5674817.11738736
 10
319861.516392132
 20
5674813.2581729
 10
319861.029887318
 20
5674812.02842321
 10
319859.158080663
 20
5674807.35937358
 10
319859.034392998
 20
5674807.0394387
 10
319858.976672088
 20
5674806.88946923
 10
319857.311011541
 20
5674807.51934102
  0
LWPOLYLINE
  5
2024B
  8
Eigentuemer
100
AcDbEntity
100
AcDbPolyline
 70
0
 90
6
 62
7
370
0
 10
320057.882928198
 20
5674835.23369984
 10
320057.882928198
 20
5674819.56688877
 10
320056.794476751
 20
5674819.99680127
 10
320052.613833693
 20
5674821.66646141
 10
320052.572604471
 20
5674821.67645938
 10
320057.882928198
 20
5674835.23369984
  0
LWPOLYLINE
  5
2024C
  8
Eigentuemer
100
AcDbEntity
100
AcDbPolyline
 70
0
 90
13
 62
7
370
0
 10
319857.311011541
 20
5674807.51934102
 10
319857.311011541
 20
5674827.01537266
 10
319860.337236397
 20
5674826.09555988
 10
319865.581593369
 20
5674824.37590991
 10
319865.919672986
 20
5674824.2659323
 10
319865.763001944
 20
5674823.89600759
 10
319863.058365015
 20
5674817.11738736
 10
319861.516392132
 20
5674813.2581729
 10
319861.029887318
 20
5674812.02842321
 10
319859.158080663
 20
5674807.35937358
 10
319859.034392998
 20
5674807.0394387
 10
319858.976672088
 20
5674806.88946923
 10
319857.311011541
 20
5674807.51934102
  0
LWPOLYLINE
  5
2024D
  8
Eigentuemer
100
AcDbEntity
100
AcDbPolyline
 70
0
 90
6
 62
7
370
0
 10
320057.882928198
 20
5674835.23369984
 10
320057.882928198
 20
5674819.56688877
 10
320056.794476751
 20
5674819.99680127
 10
320052.613833693
 20
5674821.66646141
 10
320052.572604471
 20
5674821.67645938
 10
320057.882928198
 20
5674835.23369984
  0
LWPOLYLINE
  5
2024E
  8
Eigentuemer
100
AcDbEntity
100
AcDbPolyline
 70
0
 90
13
 62
7
370
0
 10
319857.311011541
 20
5674807.51934102
 10
319857.311011541
 20
5674827.01537266
 10
319860.337236397
 20
5674826.09555988
 10
319865.581593369
 20
5674824.37590991
 10
319865.919672986
 20
5674824.2659323
 10
319865.763001944
 20
5674823.89600759
 10
319863.058365015
 20
5674817.11738736
 10
319861.516392132
 20
5674813.2581729
 10
319861.029887318
 20
5674812.02842321
 10
319859.158080663
 20
5674807.35937358
 10
319859.034392998
 20
5674807.0394387
 10
319858.976672088
 20
5674806.88946923
 10
319857.311011541
 20
5674807.51934102
  0
LWPOLYLINE
  5
2024F
  8
Eigentuemer
100
AcDbEntity
100
AcDbPolyline
 70
0
 90
6
 62
7
370
0
 10
320057.882928198
 20
5674835.23369984
 10
320057.882928198
 20
5674819.56688877
 10
320056.794476751
 20
5674819.99680127
 10
320052.613833693
 20
5674821.66646141
 10
320052.572604471
 20
5674821.67645938
 10
320057.882928198
 20
5674835.23369984
  0
LWPOLYLINE
  5
20250
  8
Eigentuemer
100
AcDbEntity
100
AcDbPolyline
 70
0
 90
6
 62
7
370
0
 10
320057.882928198
 20
5674835.23369984
 10
320057.882928198
 20
5674819.56688877
 10
320056.794476751
 20
5674819.99680127
 10
320052.613833693
 20
5674821.66646141
 10
320052.572604471
 20
5674821.67645938
 10
320057.882928198
 20
5674835.23369984
  0
LWPOLYLINE
  5
20251
  8
Eigentuemer
100
AcDbEntity
100
AcDbPolyline
 70
0
 90
13
 62
7
370
0
 10
319857.311011541
 20
5674807.51934102
 10
319857.311011541
 20
5674827.01537266
 10
319860.337236397
 20
5674826.09555988
 10
319865.581593369
 20
5674824.37590991
 10
319865.919672986
 20
5674824.2659323
 10
319865.763001944
 20
5674823.89600759
 10
319863.058365015
 20
5674817.11738736
 10
319861.516392132
 20
5674813.2581729
 10
319861.029887318
 20
5674812.02842321
 10
319859.158080663
 20
5674807.35937358
 10
319859.034392998
 20
5674807.0394387
 10
319858.976672088
 20
5674806.88946923
 10
319857.311011541
 20
5674807.51934102
  0
LWPOLYLINE
  5
20252
  8
Eigentuemer
100
AcDbEntity
100
AcDbPolyline
 70
0
 90
13
 62
7
370
0
 10
319857.311011541
 20
5674807.51934102
 10
319857.311011541
 20
5674827.01537266
 10
319860.337236397
 20
5674826.09555988
 10
319865.581593369
 20
5674824.37590991
 10
319865.919672986
 20
5674824.2659323
 10
319865.763001944
 20
5674823.89600759
 10
319863.058365015
 20
5674817.11738736
 10
319861.516392132
 20
5674813.2581729
 10
319861.029887318
 20
5674812.02842321
 10
319859.158080663
 20
5674807.35937358
 10
319859.034392998
 20
5674807.0394387
 10
319858.976672088
 20
5674806.88946923
 10
319857.311011541
 20
5674807.51934102
  0
LWPOLYLINE
  5
20253
  8
Eigentuemer
100
AcDbEntity
100
AcDbPolyline
 70
0
 90
6
 62
7
370
0
 10
320057.882928198
 20
5674835.23369984
 10
320057.882928198
 20
5674819.56688877
 10
320056.794476751
 20
5674819.99680127
 10
320052.613833693
 20
5674821.66646141
 10
320052.572604471
 20
5674821.67645938
 10
320057.882928198
 20
5674835.23369984
  0
LWPOLYLINE
  5
20254
  8
Eigentuemer
100
AcDbEntity
100
AcDbPolyline
 70
0
 90
13
 62
7
370
0
 10
319857.311011541
 20
5674807.51934102
 10
319857.311011541
 20
5674827.01537266
 10
319860.337236397
 20
5674826.09555988
 10
319865.581593369
 20
5674824.37590991
 10
319865.919672986
 20
5674824.2659323
 10
319865.763001944
 20
5674823.89600759
 10
319863.058365015
 20
5674817.11738736
 10
319861.516392132
 20
5674813.2581729
 10
319861.029887318
 20
5674812.02842321
 10
319859.158080663
 20
5674807.35937358
 10
319859.034392998
 20
5674807.0394387
 10
319858.976672088
 20
5674806.88946923
 10
319857.311011541
 20
5674807.51934102
  0
LWPOLYLINE
  5
20255
  8
Eigentuemer
100
AcDbEntity
100
AcDbPolyline
 70
0
 90
6
 62
7
370
0
 10
320057.882928198
 20
5674835.23369984
 10
320057.882928198
 20
5674819.56688877
 10
320056.794476751
 20
5674819.99680127
 10
320052.613833693
 20
5674821.66646141
 10
320052.572604471
 20
5674821.67645938
 10
320057.882928198
 20
5674835.23369984
  0
LWPOLYLINE
  5
20256
  8
Eigentuemer
100
AcDbEntity
100
AcDbPolyline
 70
0
 90
13
 62
7
370
0
 10
319857.311011541
 20
5674807.51934102
 10
319857.311011541
 20
5674827.01537266
 10
319860.337236397
 20
5674826.09555988
 10
319865.581593369
 20
5674824.37590991
 10
319865.919672986
 20
5674824.2659323
 10
319865.763001944
 20
5674823.89600759
 10
319863.058365015
 20
5674817.11738736
 10
319861.516392132
 20
5674813.2581729
 10
319861.029887318
 20
5674812.02842321
 10
319859.158080663
 20
5674807.35937358
 10
319859.034392998
 20
5674807.0394387
 10
319858.976672088
 20
5674806.88946923
 10
319857.311011541
 20
5674807.51934102
  0
LWPOLYLINE
  5
20257
  8
Eigentuemer
100
AcDbEntity
100
AcDbPolyline
 70
0
 90
6
 62
7
370
0
 10
320057.882928198
 20
5674835.23369984
 10
320057.882928198
 20
5674819.56688877
 10
320056.794476751
 20
5674819.99680127
 10
320052.613833693
 20
5674821.66646141
 10
320052.572604471
 20
5674821.67645938
 10
320057.882928198
 20
5674835.23369984
  0
LWPOLYLINE
  5
20258
  8
Eigentuemer
100
AcDbEntity
100
AcDbPolyline
 70
0
 90
13
 62
7
370
0
 10
319857.311011541
 20
5674807.51934102
 10
319857.311011541
 20
5674827.01537266
 10
319860.337236397
 20
5674826.09555988
 10
319865.581593369
 20
5674824.37590991
 10
319865.919672986
 20
5674824.2659323
 10
319865.763001944
 20
5674823.89600759
 10
319863.058365015
 20
5674817.11738736
 10
319861.516392132
 20
5674813.2581729
 10
319861.029887318
 20
5674812.02842321
 10
319859.158080663
 20
5674807.35937358
 10
319859.034392998
 20
5674807.0394387
 10
319858.976672088
 20
5674806.88946923
 10
319857.311011541
 20
5674807.51934102
  0
LWPOLYLINE
  5
20259
  8
Eigentuemer
100
AcDbEntity
100
AcDbPolyline
 70
0
 90
6
 62
7
370
0
 10
320057.882928198
 20
5674835.23369984
 10
320057.882928198
 20
5674819.56688877
 10
320056.794476751
 20
5674819.99680127
 10
320052.613833693
 20
5674821.66646141
 10
320052.572604471
 20
5674821.67645938
 10
320057.882928198
 20
5674835.23369984
  0
LWPOLYLINE
  5
2025A
  8
Eigentuemer
100
AcDbEntity
100
AcDbPolyline
 70
0
 90
13
 62
7
370
0
 10
319857.311011541
 20
5674807.51934102
 10
319857.311011541
 20
5674827.01537266
 10
319860.337236397
 20
5674826.09555988
 10
319865.581593369
 20
5674824.37590991
 10
319865.919672986
 20
5674824.2659323
 10
319865.763001944
 20
5674823.89600759
 10
319863.058365015
 20
5674817.11738736
 10
319861.516392132
 20
5674813.2581729
 10
319861.029887318
 20
5674812.02842321
 10
319859.158080663
 20
5674807.35937358
 10
319859.034392998
 20
5674807.0394387
 10
319858.976672088
 20
5674806.88946923
 10
319857.311011541
 20
5674807.51934102
  0
LWPOLYLINE
  5
2025B
  8
Eigentuemer
100
AcDbEntity
100
AcDbPolyline
 70
0
 90
6
 62
7
370
0
 10
320057.882928198
 20
5674835.23369984
 10
320057.882928198
 20
5674819.56688877
 10
320056.794476751
 20
5674819.99680127
 10
320052.613833693
 20
5674821.66646141
 10
320052.572604471
 20
5674821.67645938
 10
320057.882928198
 20
5674835.23369984
  0
LWPOLYLINE
  5
2025C
  8
Eigentuemer
100
AcDbEntity
100
AcDbPolyline
 70
0
 90
13
 62
7
370
0
 10
319857.311011541
 20
5674807.51934102
 10
319857.311011541
 20
5674827.01537266
 10
319860.337236397
 20
5674826.09555988
 10
319865.581593369
 20
5674824.37590991
 10
319865.919672986
 20
5674824.2659323
 10
319865.763001944
 20
5674823.89600759
 10
319863.058365015
 20
5674817.11738736
 10
319861.516392132
 20
5674813.2581729
 10
319861.029887318
 20
5674812.02842321
 10
319859.158080663
 20
5674807.35937358
 10
319859.034392998
 20
5674807.0394387
 10
319858.976672088
 20
5674806.88946923
 10
319857.311011541
 20
5674807.51934102
  0
LWPOLYLINE
  5
2025D
  8
Eigentuemer
100
AcDbEntity
100
AcDbPolyline
 70
0
 90
6
 62
7
370
0
 10
320057.882928198
 20
5674835.23369984
 10
320057.882928198
 20
5674819.56688877
 10
320056.794476751
 20
5674819.99680127
 10
320052.613833693
 20
5674821.66646141
 10
320052.572604471
 20
5674821.67645938
 10
320057.882928198
 20
5674835.23369984
  0
LWPOLYLINE
  5
2025E
  8
Eigentuemer
100
AcDbEntity
100
AcDbPolyline
 70
0
 90
13
 62
7
370
0
 10
319857.311011541
 20
5674807.51934102
 10
319857.311011541
 20
5674827.01537266
 10
319860.337236397
 20
5674826.09555988
 10
319865.581593369
 20
5674824.37590991
 10
319865.919672986
 20
5674824.2659323
 10
319865.763001944
 20
5674823.89600759
 10
319863.058365015
 20
5674817.11738736
 10
319861.516392132
 20
5674813.2581729
 10
319861.029887318
 20
5674812.02842321
 10
319859.158080663
 20
5674807.35937358
 10
319859.034392998
 20
5674807.0394387
 10
319858.976672088
 20
5674806.88946923
 10
319857.311011541
 20
5674807.51934102
  0
LWPOLYLINE
  5
2025F
  8
Eigentuemer
100
AcDbEntity
100
AcDbPolyline
 70
0
 90
6
 62
7
370
0
 10
320057.882928198
 20
5674835.23369984
 10
320057.882928198
 20
5674819.56688877
 10
320056.794476751
 20
5674819.99680127
 10
320052.613833693
 20
5674821.66646141
 10
320052.572604471
 20
5674821.67645938
 10
320057.882928198
 20
5674835.23369984
  0
LWPOLYLINE
  5
20260
  8
Eigentuemer
100
AcDbEntity
100
AcDbPolyline
 70
0
 90
13
 62
7
370
0
 10
319857.311011541
 20
5674807.51934102
 10
319857.311011541
 20
5674827.01537266
 10
319860.337236397
 20
5674826.09555988
 10
319865.581593369
 20
5674824.37590991
 10
319865.919672986
 20
5674824.2659323
 10
319865.763001944
 20
5674823.89600759
 10
319863.058365015
 20
5674817.11738736
 10
319861.516392132
 20
5674813.2581729
 10
319861.029887318
 20
5674812.02842321
 10
319859.158080663
 20
5674807.35937358
 10
319859.034392998
 20
5674807.0394387
 10
319858.976672088
 20
5674806.88946923
 10
319857.311011541
 20
5674807.51934102
  0
LWPOLYLINE
  5
20261
  8
Eigentuemer
100
AcDbEntity
100
AcDbPolyline
 70
0
 90
6
 62
7
370
0
 10
320057.882928198
 20
5674835.23369984
 10
320057.882928198
 20
5674819.56688877
 10
320056.794476751
 20
5674819.99680127
 10
320052.613833693
 20
5674821.66646141
 10
320052.572604471
 20
5674821.67645938
 10
320057.882928198
 20
5674835.23369984
  0
LWPOLYLINE
  5
20262
  8
Eigentuemer
100
AcDbEntity
100
AcDbPolyline
 70
0
 90
13
 62
7
370
0
 10
319857.311011541
 20
5674807.51934102
 10
319857.311011541
 20
5674827.01537266
 10
319860.337236397
 20
5674826.09555988
 10
319865.581593369
 20
5674824.37590991
 10
319865.919672986
 20
5674824.2659323
 10
319865.763001944
 20
5674823.89600759
 10
319863.058365015
 20
5674817.11738736
 10
319861.516392132
 20
5674813.2581729
 10
319861.029887318
 20
5674812.02842321
 10
319859.158080663
 20
5674807.35937358
 10
319859.034392998
 20
5674807.0394387
 10
319858.976672088
 20
5674806.88946923
 10
319857.311011541
 20
5674807.51934102
  0
LWPOLYLINE
  5
20263
  8
Eigentuemer
100
AcDbEntity
100
AcDbPolyline
 70
0
 90
6
 62
7
370
0
 10
320057.882928198
 20
5674835.23369984
 10
320057.882928198
 20
5674819.56688877
 10
320056.794476751
 20
5674819.99680127
 10
320052.613833693
 20
5674821.66646141
 10
320052.572604471
 20
5674821.67645938
 10
320057.882928198
 20
5674835.23369984
  0
LWPOLYLINE
  5
20264
  8
Eigentuemer
100
AcDbEntity
100
AcDbPolyline
 70
0
 90
13
 62
7
370
0
 10
319857.311011541
 20
5674807.51934102
 10
319857.311011541
 20
5674827.01537266
 10
319860.337236397
 20
5674826.09555988
 10
319865.581593369
 20
5674824.37590991
 10
319865.919672986
 20
5674824.2659323
 10
319865.763001944
 20
5674823.89600759
 10
319863.058365015
 20
5674817.11738736
 10
319861.516392132
 20
5674813.2581729
 10
319861.029887318
 20
5674812.02842321
 10
319859.158080663
 20
5674807.35937358
 10
319859.034392998
 20
5674807.0394387
 10
319858.976672088
 20
5674806.88946923
 10
319857.311011541
 20
5674807.51934102
  0
LWPOLYLINE
  5
20265
  8
Eigentuemer
100
AcDbEntity
100
AcDbPolyline
 70
0
 90
6
 62
7
370
0
 10
320057.882928198
 20
5674835.23369984
 10
320057.882928198
 20
5674819.56688877
 10
320056.794476751
 20
5674819.99680127
 10
320052.613833693
 20
5674821.66646141
 10
320052.572604471
 20
5674821.67645938
 10
320057.882928198
 20
5674835.23369984
  0
LWPOLYLINE
  5
20266
  8
Eigentuemer
100
AcDbEntity
100
AcDbPolyline
 70
0
 90
13
 62
7
370
0
 10
319857.311011541
 20
5674807.51934102
 10
319857.311011541
 20
5674827.01537266
 10
319860.337236397
 20
5674826.09555988
 10
319865.581593369
 20
5674824.37590991
 10
319865.919672986
 20
5674824.2659323
 10
319865.763001944
 20
5674823.89600759
 10
319863.058365015
 20
5674817.11738736
 10
319861.516392132
 20
5674813.2581729
 10
319861.029887318
 20
5674812.02842321
 10
319859.158080663
 20
5674807.35937358
 10
319859.034392998
 20
5674807.0394387
 10
319858.976672088
 20
5674806.88946923
 10
319857.311011541
 20
5674807.51934102
  0
LWPOLYLINE
  5
20267
  8
Eigentuemer
100
AcDbEntity
100
AcDbPolyline
 70
0
 90
6
 62
7
370
0
 10
320057.882928198
 20
5674835.23369984
 10
320057.882928198
 20
5674819.56688877
 10
320056.794476751
 20
5674819.99680127
 10
320052.613833693
 20
5674821.66646141
 10
320052.572604471
 20
5674821.67645938
 10
320057.882928198
 20
5674835.23369984
  0
LWPOLYLINE
  5
20268
  8
Eigentuemer
100
AcDbEntity
100
AcDbPolyline
 70
0
 90
13
 62
7
370
0
 10
319857.311011541
 20
5674807.51934102
 10
319857.311011541
 20
5674827.01537266
 10
319860.337236397
 20
5674826.09555988
 10
319865.581593369
 20
5674824.37590991
 10
319865.919672986
 20
5674824.2659323
 10
319865.763001944
 20
5674823.89600759
 10
319863.058365015
 20
5674817.11738736
 10
319861.516392132
 20
5674813.2581729
 10
319861.029887318
 20
5674812.02842321
 10
319859.158080663
 20
5674807.35937358
 10
319859.034392998
 20
5674807.0394387
 10
319858.976672088
 20
5674806.88946923
 10
319857.311011541
 20
5674807.51934102
  0
LWPOLYLINE
  5
20269
  8
Eigentuemer
100
AcDbEntity
100
AcDbPolyline
 70
0
 90
6
 62
7
370
0
 10
320057.882928198
 20
5674835.23369984
 10
320057.882928198
 20
5674819.56688877
 10
320056.794476751
 20
5674819.99680127
 10
320052.613833693
 20
5674821.66646141
 10
320052.572604471
 20
5674821.67645938
 10
320057.882928198
 20
5674835.23369984
  0
LWPOLYLINE
  5
2026A
  8
Eigentuemer
100
AcDbEntity
100
AcDbPolyline
 70
0
 90
13
 62
7
370
0
 10
319857.311011541
 20
5674807.51934102
 10
319857.311011541
 20
5674827.01537266
 10
319860.337236397
 20
5674826.09555988
 10
319865.581593369
 20
5674824.37590991
 10
319865.919672986
 20
5674824.2659323
 10
319865.763001944
 20
5674823.89600759
 10
319863.058365015
 20
5674817.11738736
 10
319861.516392132
 20
5674813.2581729
 10
319861.029887318
 20
5674812.02842321
 10
319859.158080663
 20
5674807.35937358
 10
319859.034392998
 20
5674807.0394387
 10
319858.976672088
 20
5674806.88946923
 10
319857.311011541
 20
5674807.51934102
  0
LWPOLYLINE
  5
2026B
  8
Eigentuemer
100
AcDbEntity
100
AcDbPolyline
 70
0
 90
6
 62
7
370
0
 10
320057.882928198
 20
5674835.23369984
 10
320057.882928198
 20
5674819.56688877
 10
320056.794476751
 20
5674819.99680127
 10
320052.613833693
 20
5674821.66646141
 10
320052.572604471
 20
5674821.67645938
 10
320057.882928198
 20
5674835.23369984
  0
LWPOLYLINE
  5
2026C
  8
Eigentuemer
100
AcDbEntity
100
AcDbPolyline
 70
0
 90
13
 62
7
370
0
 10
319857.311011541
 20
5674807.51934102
 10
319857.311011541
 20
5674827.01537266
 10
319860.337236397
 20
5674826.09555988
 10
319865.581593369
 20
5674824.37590991
 10
319865.919672986
 20
5674824.2659323
 10
319865.763001944
 20
5674823.89600759
 10
319863.058365015
 20
5674817.11738736
 10
319861.516392132
 20
5674813.2581729
 10
319861.029887318
 20
5674812.02842321
 10
319859.158080663
 20
5674807.35937358
 10
319859.034392998
 20
5674807.0394387
 10
319858.976672088
 20
5674806.88946923
 10
319857.311011541
 20
5674807.51934102
  0
LWPOLYLINE
  5
2026D
  8
Eigentuemer
100
AcDbEntity
100
AcDbPolyline
 70
0
 90
6
 62
7
370
0
 10
320057.882928198
 20
5674835.23369984
 10
320057.882928198
 20
5674819.56688877
 10
320056.794476751
 20
5674819.99680127
 10
320052.613833693
 20
5674821.66646141
 10
320052.572604471
 20
5674821.67645938
 10
320057.882928198
 20
5674835.23369984
  0
LWPOLYLINE
  5
2026E
  8
Eigentuemer
100
AcDbEntity
100
AcDbPolyline
 70
0
 90
13
 62
7
370
0
 10
319857.311011541
 20
5674807.51934102
 10
319857.311011541
 20
5674827.01537266
 10
319860.337236397
 20
5674826.09555988
 10
319865.581593369
 20
5674824.37590991
 10
319865.919672986
 20
5674824.2659323
 10
319865.763001944
 20
5674823.89600759
 10
319863.058365015
 20
5674817.11738736
 10
319861.516392132
 20
5674813.2581729
 10
319861.029887318
 20
5674812.02842321
 10
319859.158080663
 20
5674807.35937358
 10
319859.034392998
 20
5674807.0394387
 10
319858.976672088
 20
5674806.88946923
 10
319857.311011541
 20
5674807.51934102
  0
LWPOLYLINE
  5
2026F
  8
Eigentuemer
100
AcDbEntity
100
AcDbPolyline
 70
0
 90
6
 62
7
370
0
 10
320057.882928198
 20
5674835.23369984
 10
320057.882928198
 20
5674819.56688877
 10
320056.794476751
 20
5674819.99680127
 10
320052.613833693
 20
5674821.66646141
 10
320052.572604471
 20
5674821.67645938
 10
320057.882928198
 20
5674835.23369984
  0
LWPOLYLINE
  5
20270
  8
Eigentuemer
100
AcDbEntity
100
AcDbPolyline
 70
0
 90
13
 62
7
370
0
 10
319857.311011541
 20
5674807.51934102
 10
319857.311011541
 20
5674827.01537266
 10
319860.337236397
 20
5674826.09555988
 10
319865.581593369
 20
5674824.37590991
 10
319865.919672986
 20
5674824.2659323
 10
319865.763001944
 20
5674823.89600759
 10
319863.058365015
 20
5674817.11738736
 10
319861.516392132
 20
5674813.2581729
 10
319861.029887318
 20
5674812.02842321
 10
319859.158080663
 20
5674807.35937358
 10
319859.034392998
 20
5674807.0394387
 10
319858.976672088
 20
5674806.88946923
 10
319857.311011541
 20
5674807.51934102
  0
LWPOLYLINE
  5
20271
  8
Eigentuemer
100
AcDbEntity
100
AcDbPolyline
 70
0
 90
6
 62
7
370
0
 10
320057.882928198
 20
5674835.23369984
 10
320057.882928198
 20
5674819.56688877
 10
320056.794476751
 20
5674819.99680127
 10
320052.613833693
 20
5674821.66646141
 10
320052.572604471
 20
5674821.67645938
 10
320057.882928198
 20
5674835.23369984
  0
LWPOLYLINE
  5
20272
  8
Eigentuemer
100
AcDbEntity
100
AcDbPolyline
 70
0
 90
13
 62
7
370
0
 10
319857.311011541
 20
5674807.51934102
 10
319857.311011541
 20
5674827.01537266
 10
319860.337236397
 20
5674826.09555988
 10
319865.581593369
 20
5674824.37590991
 10
319865.919672986
 20
5674824.2659323
 10
319865.763001944
 20
5674823.89600759
 10
319863.058365015
 20
5674817.11738736
 10
319861.516392132
 20
5674813.2581729
 10
319861.029887318
 20
5674812.02842321
 10
319859.158080663
 20
5674807.35937358
 10
319859.034392998
 20
5674807.0394387
 10
319858.976672088
 20
5674806.88946923
 10
319857.311011541
 20
5674807.51934102
  0
LWPOLYLINE
  5
20273
  8
Eigentuemer
100
AcDbEntity
100
AcDbPolyline
 70
0
 90
6
 62
7
370
0
 10
320057.882928198
 20
5674835.23369984
 10
320057.882928198
 20
5674819.56688877
 10
320056.794476751
 20
5674819.99680127
 10
320052.613833693
 20
5674821.66646141
 10
320052.572604471
 20
5674821.67645938
 10
320057.882928198
 20
5674835.23369984
  0
LWPOLYLINE
  5
20274
  8
Eigentuemer
100
AcDbEntity
100
AcDbPolyline
 70
0
 90
13
 62
7
370
0
 10
319857.311011541
 20
5674807.51934102
 10
319857.311011541
 20
5674827.01537266
 10
319860.337236397
 20
5674826.09555988
 10
319865.581593369
 20
5674824.37590991
 10
319865.919672986
 20
5674824.2659323
 10
319865.763001944
 20
5674823.89600759
 10
319863.058365015
 20
5674817.11738736
 10
319861.516392132
 20
5674813.2581729
 10
319861.029887318
 20
5674812.02842321
 10
319859.158080663
 20
5674807.35937358
 10
319859.034392998
 20
5674807.0394387
 10
319858.976672088
 20
5674806.88946923
 10
319857.311011541
 20
5674807.51934102
  0
LWPOLYLINE
  5
20275
  8
Eigentuemer
100
AcDbEntity
100
AcDbPolyline
 70
0
 90
6
 62
7
370
0
 10
320057.882928198
 20
5674835.23369984
 10
320057.882928198
 20
5674819.56688877
 10
320056.794476751
 20
5674819.99680127
 10
320052.613833693
 20
5674821.66646141
 10
320052.572604471
 20
5674821.67645938
 10
320057.882928198
 20
5674835.23369984
  0
LWPOLYLINE
  5
20276
  8
Eigentuemer
100
AcDbEntity
100
AcDbPolyline
 70
0
 90
13
 62
7
370
0
 10
319857.311011541
 20
5674807.51934102
 10
319857.311011541
 20
5674827.01537266
 10
319860.337236397
 20
5674826.09555988
 10
319865.581593369
 20
5674824.37590991
 10
319865.919672986
 20
5674824.2659323
 10
319865.763001944
 20
5674823.89600759
 10
319863.058365015
 20
5674817.11738736
 10
319861.516392132
 20
5674813.2581729
 10
319861.029887318
 20
5674812.02842321
 10
319859.158080663
 20
5674807.35937358
 10
319859.034392998
 20
5674807.0394387
 10
319858.976672088
 20
5674806.88946923
 10
319857.311011541
 20
5674807.51934102
  0
LWPOLYLINE
  5
20277
  8
Eigentuemer
100
AcDbEntity
100
AcDbPolyline
 70
0
 90
6
 62
7
370
0
 10
320057.882928198
 20
5674835.23369984
 10
320057.882928198
 20
5674819.56688877
 10
320056.794476751
 20
5674819.99680127
 10
320052.613833693
 20
5674821.66646141
 10
320052.572604471
 20
5674821.67645938
 10
320057.882928198
 20
5674835.23369984
  0
LWPOLYLINE
  5
20278
  8
Eigentuemer
100
AcDbEntity
100
AcDbPolyline
 70
0
 90
13
 62
7
370
0
 10
319857.311011541
 20
5674807.51934102
 10
319857.311011541
 20
5674827.01537266
 10
319860.337236397
 20
5674826.09555988
 10
319865.581593369
 20
5674824.37590991
 10
319865.919672986
 20
5674824.2659323
 10
319865.763001944
 20
5674823.89600759
 10
319863.058365015
 20
5674817.11738736
 10
319861.516392132
 20
5674813.2581729
 10
319861.029887318
 20
5674812.02842321
 10
319859.158080663
 20
5674807.35937358
 10
319859.034392998
 20
5674807.0394387
 10
319858.976672088
 20
5674806.88946923
 10
319857.311011541
 20
5674807.51934102
  0
LWPOLYLINE
  5
20279
  8
Eigentuemer
100
AcDbEntity
100
AcDbPolyline
 70
0
 90
6
 62
7
370
0
 10
320057.882928198
 20
5674835.23369984
 10
320057.882928198
 20
5674819.56688877
 10
320056.794476751
 20
5674819.99680127
 10
320052.613833693
 20
5674821.66646141
 10
320052.572604471
 20
5674821.67645938
 10
320057.882928198
 20
5674835.23369984
  0
LWPOLYLINE
  5
2027A
  8
Eigentuemer
100
AcDbEntity
100
AcDbPolyline
 70
0
 90
13
 62
7
370
0
 10
319857.311011541
 20
5674807.51934102
 10
319857.311011541
 20
5674827.01537266
 10
319860.337236397
 20
5674826.09555988
 10
319865.581593369
 20
5674824.37590991
 10
319865.919672986
 20
5674824.2659323
 10
319865.763001944
 20
5674823.89600759
 10
319863.058365015
 20
5674817.11738736
 10
319861.516392132
 20
5674813.2581729
 10
319861.029887318
 20
5674812.02842321
 10
319859.158080663
 20
5674807.35937358
 10
319859.034392998
 20
5674807.0394387
 10
319858.976672088
 20
5674806.88946923
 10
319857.311011541
 20
5674807.51934102
  0
LWPOLYLINE
  5
2027B
  8
Eigentuemer
100
AcDbEntity
100
AcDbPolyline
 70
0
 90
6
 62
7
370
0
 10
320057.882928198
 20
5674835.23369984
 10
320057.882928198
 20
5674819.56688877
 10
320056.794476751
 20
5674819.99680127
 10
320052.613833693
 20
5674821.66646141
 10
320052.572604471
 20
5674821.67645938
 10
320057.882928198
 20
5674835.23369984
  0
LWPOLYLINE
  5
2027C
  8
Eigentuemer
100
AcDbEntity
100
AcDbPolyline
 70
0
 90
13
 62
7
370
0
 10
319857.311011541
 20
5674807.51934102
 10
319857.311011541
 20
5674827.01537266
 10
319860.337236397
 20
5674826.09555988
 10
319865.581593369
 20
5674824.37590991
 10
319865.919672986
 20
5674824.2659323
 10
319865.763001944
 20
5674823.89600759
 10
319863.058365015
 20
5674817.11738736
 10
319861.516392132
 20
5674813.2581729
 10
319861.029887318
 20
5674812.02842321
 10
319859.158080663
 20
5674807.35937358
 10
319859.034392998
 20
5674807.0394387
 10
319858.976672088
 20
5674806.88946923
 10
319857.311011541
 20
5674807.51934102
  0
LWPOLYLINE
  5
2027D
  8
Eigentuemer
100
AcDbEntity
100
AcDbPolyline
 70
0
 90
6
 62
7
370
0
 10
320057.882928198
 20
5674835.23369984
 10
320057.882928198
 20
5674819.56688877
 10
320056.794476751
 20
5674819.99680127
 10
320052.613833693
 20
5674821.66646141
 10
320052.572604471
 20
5674821.67645938
 10
320057.882928198
 20
5674835.23369984
  0
LWPOLYLINE
  5
2027E
  8
Eigentuemer
100
AcDbEntity
100
AcDbPolyline
 70
0
 90
13
 62
7
370
0
 10
319857.311011541
 20
5674807.51934102
 10
319857.311011541
 20
5674827.01537266
 10
319860.337236397
 20
5674826.09555988
 10
319865.581593369
 20
5674824.37590991
 10
319865.919672986
 20
5674824.2659323
 10
319865.763001944
 20
5674823.89600759
 10
319863.058365015
 20
5674817.11738736
 10
319861.516392132
 20
5674813.2581729
 10
319861.029887318
 20
5674812.02842321
 10
319859.158080663
 20
5674807.35937358
 10
319859.034392998
 20
5674807.0394387
 10
319858.976672088
 20
5674806.88946923
 10
319857.311011541
 20
5674807.51934102
  0
LWPOLYLINE
  5
2027F
  8
Eigentuemer
100
AcDbEntity
100
AcDbPolyline
 70
0
 90
6
 62
7
370
0
 10
320057.882928198
 20
5674835.23369984
 10
320057.882928198
 20
5674819.56688877
 10
320056.794476751
 20
5674819.99680127
 10
320052.613833693
 20
5674821.66646141
 10
320052.572604471
 20
5674821.67645938
 10
320057.882928198
 20
5674835.23369984
  0
LWPOLYLINE
  5
20280
  8
Eigentuemer
100
AcDbEntity
100
AcDbPolyline
 70
0
 90
13
 62
7
370
0
 10
319857.311011541
 20
5674807.51934102
 10
319857.311011541
 20
5674827.01537266
 10
319860.337236397
 20
5674826.09555988
 10
319865.581593369
 20
5674824.37590991
 10
319865.919672986
 20
5674824.2659323
 10
319865.763001944
 20
5674823.89600759
 10
319863.058365015
 20
5674817.11738736
 10
319861.516392132
 20
5674813.2581729
 10
319861.029887318
 20
5674812.02842321
 10
319859.158080663
 20
5674807.35937358
 10
319859.034392998
 20
5674807.0394387
 10
319858.976672088
 20
5674806.88946923
 10
319857.311011541
 20
5674807.51934102
  0
LWPOLYLINE
  5
20281
  8
Eigentuemer
100
AcDbEntity
100
AcDbPolyline
 70
0
 90
6
 62
7
370
0
 10
320057.882928198
 20
5674835.23369984
 10
320057.882928198
 20
5674819.56688877
 10
320056.794476751
 20
5674819.99680127
 10
320052.613833693
 20
5674821.66646141
 10
320052.572604471
 20
5674821.67645938
 10
320057.882928198
 20
5674835.23369984
  0
LWPOLYLINE
  5
20282
  8
Eigentuemer
100
AcDbEntity
100
AcDbPolyline
 70
0
 90
13
 62
7
370
0
 10
319857.311011541
 20
5674807.51934102
 10
319857.311011541
 20
5674827.01537266
 10
319860.337236397
 20
5674826.09555988
 10
319865.581593369
 20
5674824.37590991
 10
319865.919672986
 20
5674824.2659323
 10
319865.763001944
 20
5674823.89600759
 10
319863.058365015
 20
5674817.11738736
 10
319861.516392132
 20
5674813.2581729
 10
319861.029887318
 20
5674812.02842321
 10
319859.158080663
 20
5674807.35937358
 10
319859.034392998
 20
5674807.0394387
 10
319858.976672088
 20
5674806.88946923
 10
319857.311011541
 20
5674807.51934102
  0
LWPOLYLINE
  5
20283
  8
Eigentuemer
100
AcDbEntity
100
AcDbPolyline
 70
0
 90
6
 62
7
370
0
 10
320057.882928198
 20
5674835.23369984
 10
320057.882928198
 20
5674819.56688877
 10
320056.794476751
 20
5674819.99680127
 10
320052.613833693
 20
5674821.66646141
 10
320052.572604471
 20
5674821.67645938
 10
320057.882928198
 20
5674835.23369984
  0
LWPOLYLINE
  5
20284
  8
Eigentuemer
100
AcDbEntity
100
AcDbPolyline
 70
0
 90
13
 62
7
370
0
 10
319857.311011541
 20
5674807.51934102
 10
319857.311011541
 20
5674827.01537266
 10
319860.337236397
 20
5674826.09555988
 10
319865.581593369
 20
5674824.37590991
 10
319865.919672986
 20
5674824.2659323
 10
319865.763001944
 20
5674823.89600759
 10
319863.058365015
 20
5674817.11738736
 10
319861.516392132
 20
5674813.2581729
 10
319861.029887318
 20
5674812.02842321
 10
319859.158080663
 20
5674807.35937358
 10
319859.034392998
 20
5674807.0394387
 10
319858.976672088
 20
5674806.88946923
 10
319857.311011541
 20
5674807.51934102
  0
LWPOLYLINE
  5
20285
  8
Eigentuemer
100
AcDbEntity
100
AcDbPolyline
 70
0
 90
6
 62
7
370
0
 10
320057.882928198
 20
5674835.23369984
 10
320057.882928198
 20
5674819.56688877
 10
320056.794476751
 20
5674819.99680127
 10
320052.613833693
 20
5674821.66646141
 10
320052.572604471
 20
5674821.67645938
 10
320057.882928198
 20
5674835.23369984
  0
LWPOLYLINE
  5
20286
  8
Eigentuemer
100
AcDbEntity
100
AcDbPolyline
 70
0
 90
13
 62
7
370
0
 10
319857.311011541
 20
5674807.51934102
 10
319857.311011541
 20
5674827.01537266
 10
319860.337236397
 20
5674826.09555988
 10
319865.581593369
 20
5674824.37590991
 10
319865.919672986
 20
5674824.2659323
 10
319865.763001944
 20
5674823.89600759
 10
319863.058365015
 20
5674817.11738736
 10
319861.516392132
 20
5674813.2581729
 10
319861.029887318
 20
5674812.02842321
 10
319859.158080663
 20
5674807.35937358
 10
319859.034392998
 20
5674807.0394387
 10
319858.976672088
 20
5674806.88946923
 10
319857.311011541
 20
5674807.51934102
  0
LWPOLYLINE
  5
20287
  8
Eigentuemer
100
AcDbEntity
100
AcDbPolyline
 70
0
 90
6
 62
7
370
0
 10
320057.882928198
 20
5674835.23369984
 10
320057.882928198
 20
5674819.56688877
 10
320056.794476751
 20
5674819.99680127
 10
320052.613833693
 20
5674821.66646141
 10
320052.572604471
 20
5674821.67645938
 10
320057.882928198
 20
5674835.23369984
  0
LWPOLYLINE
  5
20288
  8
Eigentuemer
100
AcDbEntity
100
AcDbPolyline
 70
0
 90
13
 62
7
370
0
 10
319857.311011541
 20
5674807.51934102
 10
319857.311011541
 20
5674827.01537266
 10
319860.337236397
 20
5674826.09555988
 10
319865.581593369
 20
5674824.37590991
 10
319865.919672986
 20
5674824.2659323
 10
319865.763001944
 20
5674823.89600759
 10
319863.058365015
 20
5674817.11738736
 10
319861.516392132
 20
5674813.2581729
 10
319861.029887318
 20
5674812.02842321
 10
319859.158080663
 20
5674807.35937358
 10
319859.034392998
 20
5674807.0394387
 10
319858.976672088
 20
5674806.88946923
 10
319857.311011541
 20
5674807.51934102
  0
LWPOLYLINE
  5
20289
  8
Eigentuemer
100
AcDbEntity
100
AcDbPolyline
 70
0
 90
6
 62
7
370
0
 10
320057.882928198
 20
5674835.23369984
 10
320057.882928198
 20
5674819.56688877
 10
320056.794476751
 20
5674819.99680127
 10
320052.613833693
 20
5674821.66646141
 10
320052.572604471
 20
5674821.67645938
 10
320057.882928198
 20
5674835.23369984
  0
LWPOLYLINE
  5
2028A
  8
Eigentuemer
100
AcDbEntity
100
AcDbPolyline
 70
0
 90
13
 62
7
370
0
 10
319857.311011541
 20
5674807.51934102
 10
319857.311011541
 20
5674827.01537266
 10
319860.337236397
 20
5674826.09555988
 10
319865.581593369
 20
5674824.37590991
 10
319865.919672986
 20
5674824.2659323
 10
319865.763001944
 20
5674823.89600759
 10
319863.058365015
 20
5674817.11738736
 10
319861.516392132
 20
5674813.2581729
 10
319861.029887318
 20
5674812.02842321
 10
319859.158080663
 20
5674807.35937358
 10
319859.034392998
 20
5674807.0394387
 10
319858.976672088
 20
5674806.88946923
 10
319857.311011541
 20
5674807.51934102
  0
LWPOLYLINE
  5
2028B
  8
Eigentuemer
100
AcDbEntity
100
AcDbPolyline
 70
0
 90
6
 62
7
370
0
 10
320057.882928198
 20
5674835.23369984
 10
320057.882928198
 20
5674819.56688877
 10
320056.794476751
 20
5674819.99680127
 10
320052.613833693
 20
5674821.66646141
 10
320052.572604471
 20
5674821.67645938
 10
320057.882928198
 20
5674835.23369984
  0
LWPOLYLINE
  5
2028C
  8
Eigentuemer
100
AcDbEntity
100
AcDbPolyline
 70
0
 90
13
 62
7
370
0
 10
319857.311011541
 20
5674807.51934102
 10
319857.311011541
 20
5674827.01537266
 10
319860.337236397
 20
5674826.09555988
 10
319865.581593369
 20
5674824.37590991
 10
319865.919672986
 20
5674824.2659323
 10
319865.763001944
 20
5674823.89600759
 10
319863.058365015
 20
5674817.11738736
 10
319861.516392132
 20
5674813.2581729
 10
319861.029887318
 20
5674812.02842321
 10
319859.158080663
 20
5674807.35937358
 10
319859.034392998
 20
5674807.0394387
 10
319858.976672088
 20
5674806.88946923
 10
319857.311011541
 20
5674807.51934102
  0
LWPOLYLINE
  5
2028D
  8
Eigentuemer
100
AcDbEntity
100
AcDbPolyline
 70
0
 90
6
 62
7
370
0
 10
320057.882928198
 20
5674835.23369984
 10
320057.882928198
 20
5674819.56688877
 10
320056.794476751
 20
5674819.99680127
 10
320052.613833693
 20
5674821.66646141
 10
320052.572604471
 20
5674821.67645938
 10
320057.882928198
 20
5674835.23369984
  0
LWPOLYLINE
  5
2028E
  8
Eigentuemer
100
AcDbEntity
100
AcDbPolyline
 70
0
 90
13
 62
7
370
0
 10
319857.311011541
 20
5674807.51934102
 10
319857.311011541
 20
5674827.01537266
 10
319860.337236397
 20
5674826.09555988
 10
319865.581593369
 20
5674824.37590991
 10
319865.919672986
 20
5674824.2659323
 10
319865.763001944
 20
5674823.89600759
 10
319863.058365015
 20
5674817.11738736
 10
319861.516392132
 20
5674813.2581729
 10
319861.029887318
 20
5674812.02842321
 10
319859.158080663
 20
5674807.35937358
 10
319859.034392998
 20
5674807.0394387
 10
319858.976672088
 20
5674806.88946923
 10
319857.311011541
 20
5674807.51934102
  0
LWPOLYLINE
  5
2028F
  8
Eigentuemer
100
AcDbEntity
100
AcDbPolyline
 70
0
 90
6
 62
7
370
0
 10
320057.882928198
 20
5674835.23369984
 10
320057.882928198
 20
5674819.56688877
 10
320056.794476751
 20
5674819.99680127
 10
320052.613833693
 20
5674821.66646141
 10
320052.572604471
 20
5674821.67645938
 10
320057.882928198
 20
5674835.23369984
  0
LWPOLYLINE
  5
20290
  8
Eigentuemer
100
AcDbEntity
100
AcDbPolyline
 70
0
 90
13
 62
7
370
0
 10
319857.311011541
 20
5674807.51934102
 10
319857.311011541
 20
5674827.01537266
 10
319860.337236397
 20
5674826.09555988
 10
319865.581593369
 20
5674824.37590991
 10
319865.919672986
 20
5674824.2659323
 10
319865.763001944
 20
5674823.89600759
 10
319863.058365015
 20
5674817.11738736
 10
319861.516392132
 20
5674813.2581729
 10
319861.029887318
 20
5674812.02842321
 10
319859.158080663
 20
5674807.35937358
 10
319859.034392998
 20
5674807.0394387
 10
319858.976672088
 20
5674806.88946923
 10
319857.311011541
 20
5674807.51934102
  0
LWPOLYLINE
  5
20291
  8
Eigentuemer
100
AcDbEntity
100
AcDbPolyline
 70
0
 90
6
 62
7
370
0
 10
320057.882928198
 20
5674835.23369984
 10
320057.882928198
 20
5674819.56688877
 10
320056.794476751
 20
5674819.99680127
 10
320052.613833693
 20
5674821.66646141
 10
320052.572604471
 20
5674821.67645938
 10
320057.882928198
 20
5674835.23369984
  0
LWPOLYLINE
  5
20292
  8
Eigentuemer
100
AcDbEntity
100
AcDbPolyline
 70
0
 90
13
 62
7
370
0
 10
319857.311011541
 20
5674807.51934102
 10
319857.311011541
 20
5674827.01537266
 10
319860.337236397
 20
5674826.09555988
 10
319865.581593369
 20
5674824.37590991
 10
319865.919672986
 20
5674824.2659323
 10
319865.763001944
 20
5674823.89600759
 10
319863.058365015
 20
5674817.11738736
 10
319861.516392132
 20
5674813.2581729
 10
319861.029887318
 20
5674812.02842321
 10
319859.158080663
 20
5674807.35937358
 10
319859.034392998
 20
5674807.0394387
 10
319858.976672088
 20
5674806.88946923
 10
319857.311011541
 20
5674807.51934102
  0
LWPOLYLINE
  5
20293
  8
Eigentuemer
100
AcDbEntity
100
AcDbPolyline
 70
0
 90
6
 62
7
370
0
 10
320057.882928198
 20
5674835.23369984
 10
320057.882928198
 20
5674819.56688877
 10
320056.794476751
 20
5674819.99680127
 10
320052.613833693
 20
5674821.66646141
 10
320052.572604471
 20
5674821.67645938
 10
320057.882928198
 20
5674835.23369984
  0
LWPOLYLINE
  5
20294
  8
Eigentuemer
100
AcDbEntity
100
AcDbPolyline
 70
0
 90
13
 62
7
370
0
 10
319857.311011541
 20
5674807.51934102
 10
319857.311011541
 20
5674827.01537266
 10
319860.337236397
 20
5674826.09555988
 10
319865.581593369
 20
5674824.37590991
 10
319865.919672986
 20
5674824.2659323
 10
319865.763001944
 20
5674823.89600759
 10
319863.058365015
 20
5674817.11738736
 10
319861.516392132
 20
5674813.2581729
 10
319861.029887318
 20
5674812.02842321
 10
319859.158080663
 20
5674807.35937358
 10
319859.034392998
 20
5674807.0394387
 10
319858.976672088
 20
5674806.88946923
 10
319857.311011541
 20
5674807.51934102
  0
LWPOLYLINE
  5
20295
  8
Eigentuemer
100
AcDbEntity
100
AcDbPolyline
 70
0
 90
6
 62
7
370
0
 10
320057.882928198
 20
5674835.23369984
 10
320057.882928198
 20
5674819.56688877
 10
320056.794476751
 20
5674819.99680127
 10
320052.613833693
 20
5674821.66646141
 10
320052.572604471
 20
5674821.67645938
 10
320057.882928198
 20
5674835.23369984
  0
LWPOLYLINE
  5
20296
  8
Eigentuemer
100
AcDbEntity
100
AcDbPolyline
 70
0
 90
13
 62
7
370
0
 10
319857.311011541
 20
5674807.51934102
 10
319857.311011541
 20
5674827.01537266
 10
319860.337236397
 20
5674826.09555988
 10
319865.581593369
 20
5674824.37590991
 10
319865.919672986
 20
5674824.2659323
 10
319865.763001944
 20
5674823.89600759
 10
319863.058365015
 20
5674817.11738736
 10
319861.516392132
 20
5674813.2581729
 10
319861.029887318
 20
5674812.02842321
 10
319859.158080663
 20
5674807.35937358
 10
319859.034392998
 20
5674807.0394387
 10
319858.976672088
 20
5674806.88946923
 10
319857.311011541
 20
5674807.51934102
  0
LWPOLYLINE
  5
20297
  8
Eigentuemer
100
AcDbEntity
100
AcDbPolyline
 70
0
 90
6
 62
7
370
0
 10
320057.882928198
 20
5674835.23369984
 10
320057.882928198
 20
5674819.56688877
 10
320056.794476751
 20
5674819.99680127
 10
320052.613833693
 20
5674821.66646141
 10
320052.572604471
 20
5674821.67645938
 10
320057.882928198
 20
5674835.23369984
  0
LWPOLYLINE
  5
20298
  8
Eigentuemer
100
AcDbEntity
100
AcDbPolyline
 70
0
 90
13
 62
7
370
0
 10
319857.311011541
 20
5674807.51934102
 10
319857.311011541
 20
5674827.01537266
 10
319860.337236397
 20
5674826.09555988
 10
319865.581593369
 20
5674824.37590991
 10
319865.919672986
 20
5674824.2659323
 10
319865.763001944
 20
5674823.89600759
 10
319863.058365015
 20
5674817.11738736
 10
319861.516392132
 20
5674813.2581729
 10
319861.029887318
 20
5674812.02842321
 10
319859.158080663
 20
5674807.35937358
 10
319859.034392998
 20
5674807.0394387
 10
319858.976672088
 20
5674806.88946923
 10
319857.311011541
 20
5674807.51934102
  0
LWPOLYLINE
  5
20299
  8
Eigentuemer
100
AcDbEntity
100
AcDbPolyline
 70
0
 90
6
 62
7
370
0
 10
320057.882928198
 20
5674835.23369984
 10
320057.882928198
 20
5674819.56688877
 10
320056.794476751
 20
5674819.99680127
 10
320052.613833693
 20
5674821.66646141
 10
320052.572604471
 20
5674821.67645938
 10
320057.882928198
 20
5674835.23369984
  0
LWPOLYLINE
  5
2029A
  8
Eigentuemer
100
AcDbEntity
100
AcDbPolyline
 70
0
 90
72
 62
7
370
0
 10
319857.311011541
 20
5674862.23820315
 10
319857.311011541
 20
5674875.12557996
 10
319860.848478744
 20
5674873.69587098
 10
319862.019388634
 20
5674876.77524418
 10
319865.886689608
 20
5674875.32553926
 10
319864.633321275
 20
5674872.25616403
 10
319869.910661625
 20
5674870.08660563
 10
319879.929362445
 20
5674865.98744001
 10
319879.558299451
 20
5674865.03763334
 10
319886.047778912
 20
5674862.31818687
 10
319886.443579438
 20
5674863.31798337
 10
319887.59799764
 20
5674866.22739116
 10
319900.445023053
 20
5674861.08843718
 10
319907.800316165
 20
5674858.13903753
 10
319906.703618874
 20
5674855.18963787
 10
319922.230543683
 20
5674849.18086094
 10
319921.826497313
 20
5674848.12107665
 10
319931.300972409
 20
5674844.33184794
 10
319931.738002157
 20
5674845.47161594
 10
319941.0722979
 20
5674841.82235874
 10
319970.542945414
 20
5674830.33469702
 10
319979.646357517
 20
5674826.65544592
 10
319982.664336529
 20
5674825.46568809
 10
319984.404209676
 20
5674824.78582648
 10
319993.169542162
 20
5674821.30653467
 10
319998.801453816
 20
5674819.05699256
 10
319999.073566678
 20
5674818.95701291
 10
320005.604275361
 20
5674816.36753999
 10
320011.318645458
 20
5674814.09800195
 10
320017.033015555
 20
5674811.81846594
 10
320022.763877341
 20
5674809.53892994
 10
320029.311077712
 20
5674806.93945905
 10
320030.514970979
 20
5674806.45955673
 10
320044.466939528
 20
5674801.02066381
 10
320050.832731325
 20
5674798.5111746
 10
320056.662543242
 20
5674796.21164267
 10
320057.882928198
 20
5674795.73174035
 10
320057.882928198
 20
5674794.59197235
 10
320028.437018216
 20
5674794.59197235
 10
320025.254122318
 20
5674795.85171593
 10
320019.952044436
 20
5674797.9412906
 10
320014.757162529
 20
5674800.11084899
 10
320007.847145009
 20
5674802.85029139
 10
320001.316436327
 20
5674805.45976024
 10
319994.299222831
 20
5674808.25919042
 10
319986.226541265
 20
5674811.4885331
 10
319980.240058306
 20
5674813.90804062
 10
319974.954472112
 20
5674815.95762343
 10
319969.611165008
 20
5674818.0471981
 10
319959.105959375
 20
5674822.1263678
 10
319951.618732754
 20
5674825.0357756
 10
319950.109743248
 20
5674825.63565349
 10
319947.025797482
 20
5674826.82541132
 10
319943.64500132
 20
5674828.15514066
 10
319937.773960181
 20
5674830.43467667
 10
319937.592551607
 20
5674830.51466039
 10
319932.562586586
 20
5674832.49425745
 10
319927.375950524
 20
5674834.55383822
 10
319919.509415066
 20
5674837.65320736
 10
319919.080631162
 20
5674837.82317276
 10
319918.420963619
 20
5674838.08311985
 10
319910.010202437
 20
5674841.41244218
 10
319903.454756221
 20
5674844.0019151
 10
319895.711908427
 20
5674847.06129237
 10
319890.99528549
 20
5674848.93091181
 10
319890.525272365
 20
5674849.11087518
 10
319885.231440327
 20
5674851.20044986
 10
319879.335661655
 20
5674853.52997569
 10
319878.23071852
 20
5674853.96988614
 10
319869.655040452
 20
5674857.35919626
 10
319859.19106404
 20
5674861.49835375
 10
319857.311011541
 20
5674862.23820315
  0
LWPOLYLINE
  5
2029B
  8
Eigentuemer
100
AcDbEntity
100
AcDbPolyline
 70
0
 90
13
 62
7
370
0
 10
319857.311011541
 20
5674807.51934102
 10
319857.311011541
 20
5674827.01537266
 10
319860.337236397
 20
5674826.09555988
 10
319865.581593369
 20
5674824.37590991
 10
319865.919672986
 20
5674824.2659323
 10
319865.763001944
 20
5674823.89600759
 10
319863.058365015
 20
5674817.11738736
 10
319861.516392132
 20
5674813.2581729
 10
319861.029887318
 20
5674812.02842321
 10
319859.158080663
 20
5674807.35937358
 10
319859.034392998
 20
5674807.0394387
 10
319858.976672088
 20
5674806.88946923
 10
319857.311011541
 20
5674807.51934102
  0
LWPOLYLINE
  5
2029C
  8
Eigentuemer
100
AcDbEntity
100
AcDbPolyline
 70
0
 90
13
 62
7
370
0
 10
319857.311011541
 20
5674807.51934102
 10
319857.311011541
 20
5674827.01537266
 10
319860.337236397
 20
5674826.09555988
 10
319865.581593369
 20
5674824.37590991
 10
319865.919672986
 20
5674824.2659323
 10
319865.763001944
 20
5674823.89600759
 10
319863.058365015
 20
5674817.11738736
 10
319861.516392132
 20
5674813.2581729
 10
319861.029887318
 20
5674812.02842321
 10
319859.158080663
 20
5674807.35937358
 10
319859.034392998
 20
5674807.0394387
 10
319858.976672088
 20
5674806.88946923
 10
319857.311011541
 20
5674807.51934102
  0
LWPOLYLINE
  5
2029D
  8
Eigentuemer
100
AcDbEntity
100
AcDbPolyline
 70
0
 90
7
 62
7
370
0
 10
319857.311011541
 20
5674829.74481709
 10
319857.311011541
 20
5674860.01865494
 10
319858.448938053
 20
5674859.55874855
 10
319859.19106404
 20
5674861.49835375
 10
319869.655040452
 20
5674857.35919626
 10
319859.13334313
 20
5674829.18493105
 10
319857.311011541
 20
5674829.74481709
  0
LWPOLYLINE
  5
2029E
  8
Eigentuemer
100
AcDbEntity
100
AcDbPolyline
 70
0
 90
7
 62
7
370
0
 10
319857.311011541
 20
5674829.74481709
 10
319857.311011541
 20
5674860.01865494
 10
319858.448938053
 20
5674859.55874855
 10
319859.19106404
 20
5674861.49835375
 10
319869.655040452
 20
5674857.35919626
 10
319859.13334313
 20
5674829.18493105
 10
319857.311011541
 20
5674829.74481709
  0
LWPOLYLINE
  5
2029F
  8
Eigentuemer_Stadt
100
AcDbEntity
100
AcDbPolyline
 70
0
 90
19
 62
7
370
0
 10
319948.641982964
 20
5674892.56203082
 10
319948.394607635
 20
5674887.22311755
 10
319959.724397697
 20
5674884.67363648
 10
319985.261777482
 20
5674878.90481071
 10
319989.607337426
 20
5674877.92501015
 10
319970.542945414
 20
5674830.33469702
 10
319941.0722979
 20
5674841.82235874
 10
319931.738002157
 20
5674845.47161594
 10
319934.879668834
 20
5674853.70993906
 10
319938.458365258
 20
5674862.99804849
 10
319934.73948948
 20
5674864.54773305
 10
319936.157774699
 20
5674868.17699433
 10
319930.410421225
 20
5674870.39654255
 10
319930.550600578
 20
5674870.76646725
 10
319939.827175411
 20
5674894.83156887
 10
319940.008583986
 20
5674895.31147118
 10
319943.150250662
 20
5674894.31167469
 10
319943.331659237
 20
5674894.2516869
 10
319948.641982964
 20
5674892.56203082
  0
LWPOLYLINE
  5
202A0
  8
Eigentuemer_Stadt
100
AcDbEntity
100
AcDbPolyline
 70
0
 90
10
 62
7
370
0
 10
319898.103203273
 20
5674919.23660129
 10
319913.423981975
 20
5674933.02379495
 10
319915.848260198
 20
5674933.71365453
 10
319934.434393242
 20
5674929.22456827
 10
319932.216261126
 20
5674919.45655652
 10
319928.456156127
 20
5674902.80994489
 10
319928.258255864
 20
5674901.95011991
 10
319925.553618935
 20
5674902.99990623
 10
319906.827306538
 20
5674910.22843488
 10
319898.103203273
 20
5674919.23660129
  0
LWPOLYLINE
  5
202A1
  8
Eigentuemer_Stadt
100
AcDbEntity
100
AcDbPolyline
 70
0
 90
12
 62
7
370
0
 10
319921.826497313
 20
5674848.12107665
 10
319922.230543683
 20
5674849.18086094
 10
319925.454668803
 20
5674857.53915963
 10
319925.644323222
 20
5674858.00906398
 10
319928.934415096
 20
5674866.57731994
 10
319929.066348605
 20
5674866.90725278
 10
319934.73948948
 20
5674864.54773305
 10
319938.458365258
 20
5674862.99804849
 10
319934.879668834
 20
5674853.70993906
 10
319931.738002157
 20
5674845.47161594
 10
319931.300972409
 20
5674844.33184794
 10
319921.826497313
 20
5674848.12107665
  0
LWPOLYLINE
  5
202A2
  8
Eigentuemer_Stadt
100
AcDbEntity
100
AcDbPolyline
 70
0
 90
5
 62
7
370
0
 10
319929.066348605
 20
5674866.90725278
 10
319930.410421225
 20
5674870.39654255
 10
319936.157774699
 20
5674868.17699433
 10
319934.73948948
 20
5674864.54773305
 10
319929.066348605
 20
5674866.90725278
  0
LWPOLYLINE
  5
202A3
  8
Eigentuemer_Stadt
100
AcDbEntity
100
AcDbPolyline
 70
0
 90
8
 62
7
370
0
 10
319878.840910998
 20
5674899.53061239
 10
319880.737455186
 20
5674897.85095428
 10
319869.910661625
 20
5674870.08660563
 10
319864.633321275
 20
5674872.25616403
 10
319865.886689608
 20
5674875.32553926
 10
319869.349944213
 20
5674883.77381964
 10
319874.033583773
 20
5674892.42205932
 10
319878.840910998
 20
5674899.53061239
  0
LWPOLYLINE
  5
202A4
  8
Eigentuemer_Stadt
100
AcDbEntity
100
AcDbPolyline
 70
0
 90
22
 62
7
370
0
 10
319906.703618874
 20
5674855.18963787
 10
319907.800316165
 20
5674858.13903753
 10
319910.084415035
 20
5674863.86787144
 10
319911.543929476
 20
5674867.52712661
 10
319911.758321427
 20
5674868.07701468
 10
319913.473457041
 20
5674872.35614367
 10
319922.881965383
 20
5674896.20129006
 10
319925.553618935
 20
5674902.99990623
 10
319928.258255864
 20
5674901.95011991
 10
319935.992857813
 20
5674898.96072839
 10
319936.537083537
 20
5674898.75077112
 10
319936.025841191
 20
5674896.54122087
 10
319940.008583986
 20
5674895.31147118
 10
319939.827175411
 20
5674894.83156887
 10
319930.550600578
 20
5674870.76646725
 10
319930.410421225
 20
5674870.39654255
 10
319929.066348605
 20
5674866.90725278
 10
319928.934415096
 20
5674866.57731994
 10
319925.644323222
 20
5674858.00906398
 10
319925.454668803
 20
5674857.53915963
 10
319922.230543683
 20
5674849.18086094
 10
319906.703618874
 20
5674855.18963787
  0
LWPOLYLINE
  5
202A5
  8
Eigentuemer_Stadt
100
AcDbEntity
100
AcDbPolyline
 70
0
 90
5
 62
7
370
0
 10
319911.758321427
 20
5674868.07701468
 10
319909.993710748
 20
5674868.90684577
 10
319911.659371296
 20
5674873.10599105
 10
319913.473457041
 20
5674872.35614367
 10
319911.758321427
 20
5674868.07701468
  0
LWPOLYLINE
  5
202A6
  8
Eigentuemer_Stadt
100
AcDbEntity
100
AcDbPolyline
 70
0
 90
5
 62
7
370
0
 10
319911.659371296
 20
5674873.10599105
 10
319921.059633793
 20
5674896.88115168
 10
319922.881965383
 20
5674896.20129006
 10
319913.473457041
 20
5674872.35614367
 10
319911.659371296
 20
5674873.10599105
  0
LWPOLYLINE
  5
202A7
  8
Eigentuemer_Stadt
100
AcDbEntity
100
AcDbPolyline
 70
0
 90
19
 62
7
370
0
 10
319868.203771856
 20
5674803.24021202
 10
319867.395679115
 20
5674801.21062514
 10
319857.987170773
 20
5674804.40997392
 10
319858.976672088
 20
5674806.88946923
 10
319859.034392998
 20
5674807.0394387
 10
319859.158080663
 20
5674807.35937358
 10
319861.029887318
 20
5674812.02842321
 10
319861.516392132
 20
5674813.2581729
 10
319863.058365015
 20
5674817.11738736
 10
319865.763001944
 20
5674823.89600759
 10
319865.919672986
 20
5674824.2659323
 10
319866.975141056
 20
5674826.92539097
 10
319867.733758731
 20
5674826.65544592
 10
319867.939904838
 20
5674826.58546016
 10
319874.767463915
 20
5674824.19594654
 10
319876.317682643
 20
5674823.64605847
 10
319869.646794607
 20
5674806.85947533
 10
319868.55834316
 20
5674804.1300309
 10
319868.203771856
 20
5674803.24021202
  0
LWPOLYLINE
  5
202A8
  8
Eigentuemer_Stadt
100
AcDbEntity
100
AcDbPolyline
 70
0
 90
9
 62
7
370
0
 10
319879.929362445
 20
5674865.98744001
 10
319869.910661625
 20
5674870.08660563
 10
319880.737455186
 20
5674897.85095428
 10
319878.840910998
 20
5674899.53061239
 10
319880.663242587
 20
5674902.23006292
 10
319887.292901401
 20
5674909.49858344
 10
319890.690189251
 20
5674908.22884189
 10
319895.827350247
 20
5674906.30923262
 10
319879.929362445
 20
5674865.98744001
  0
LWPOLYLINE
  5
202A9
  8
Eigentuemer_Stadt
100
AcDbEntity
100
AcDbPolyline
 70
0
 90
5
 62
7
370
0
 10
319857.311011541
 20
5674802.72031785
 10
319857.311011541
 20
5674807.51934102
 10
319858.976672088
 20
5674806.88946923
 10
319857.987170773
 20
5674804.40997392
 10
319857.311011541
 20
5674802.72031785
  0
LWPOLYLINE
  5
202AA
  8
Eigentuemer_Stadt
100
AcDbEntity
100
AcDbPolyline
 70
0
 90
17
 62
7
370
0
 10
320030.514970979
 20
5674806.45955673
 10
320031.017967481
 20
5674807.71930032
 10
320033.904012985
 20
5674815.05780659
 10
320038.900994628
 20
5674827.76522003
 10
320040.706834529
 20
5674832.3642839
 10
320041.39948545
 20
5674834.1339237
 10
320043.963943026
 20
5674840.65259684
 10
320046.544892291
 20
5674847.22125981
 10
320050.643076906
 20
5674857.62914131
 10
320051.434677958
 20
5674859.6587282
 10
320054.568098791
 20
5674867.61710829
 10
320057.882928198
 20
5674876.0553907
 10
320057.882928198
 20
5674835.23369984
 10
320052.572604471
 20
5674821.67645938
 10
320051.912936927
 20
5674820.00679923
 10
320044.466939528
 20
5674801.02066381
 10
320030.514970979
 20
5674806.45955673
  0
LWPOLYLINE
  5
202AB
  8
Eigentuemer_Stadt
100
AcDbEntity
100
AcDbPolyline
 70
0
 90
4
 62
7
370
0
 10
319881.331155975
 20
5674941.91198578
 10
319857.311011541
 20
5674920.38636726
 10
319857.311011541
 20
5674941.91198578
 10
319881.331155975
 20
5674941.91198578
  0
LWPOLYLINE
  5
202AC
  8
Eigentuemer_Stadt
100
AcDbEntity
100
AcDbPolyline
 70
0
 90
8
 62
7
370
0
 10
319857.311011541
 20
5674794.59197235
 10
319857.311011541
 20
5674802.72031785
 10
319857.987170773
 20
5674804.40997392
 10
319867.395679115
 20
5674801.21062514
 10
319867.107074564
 20
5674800.4807737
 10
319866.414423643
 20
5674798.7411278
 10
319864.765254784
 20
5674794.59197235
 10
319857.311011541
 20
5674794.59197235
  0
LWPOLYLINE
  5
202AD
  8
Eigentuemer_Stadt
100
AcDbEntity
100
AcDbPolyline
 70
0
 90
33
 62
7
370
0
 10
319913.423981975
 20
5674933.02379495
 10
319914.553662644
 20
5674934.01359348
 10
319927.36770468
 20
5674941.91198578
 10
319949.614992591
 20
5674941.91198578
 10
319950.068514027
 20
5674941.56205701
 10
319951.569257689
 20
5674940.88219539
 10
319951.923828993
 20
5674940.73222592
 10
319956.112717896
 20
5674939.62245181
 10
319968.448500963
 20
5674936.27313356
 10
319982.779778349
 20
5674932.42391705
 10
319986.844979587
 20
5674931.32414091
 10
319990.926672514
 20
5674930.22436477
 10
320013.528531729
 20
5674923.99563261
 10
320036.344782896
 20
5674917.98685568
 10
320040.253313093
 20
5674917.05704494
 10
320044.491677061
 20
5674916.1272342
 10
320053.059109284
 20
5674914.49756591
 10
320057.882928198
 20
5674913.81770429
 10
320057.882928198
 20
5674898.82075688
 10
320054.782490742
 20
5674899.25066937
 10
320050.337980667
 20
5674899.88054116
 10
320048.845482849
 20
5674900.10049639
 10
320039.742070746
 20
5674901.90013008
 10
320034.242092601
 20
5674903.3198411
 10
320013.520285885
 20
5674908.66875235
 10
319994.389927118
 20
5674913.7577165
 10
319968.976234998
 20
5674920.51634081
 10
319950.785902481
 20
5674925.35535584
 10
319950.596248062
 20
5674925.40534566
 10
319943.174988195
 20
5674927.1049997
 10
319934.434393242
 20
5674929.22456827
 10
319915.848260198
 20
5674933.71365453
 10
319913.423981975
 20
5674933.02379495
  0
LWPOLYLINE
  5
202AE
  8
Eigentuemer_Stadt
100
AcDbEntity
100
AcDbPolyline
 70
0
 90
72
 62
7
370
0
 10
319857.311011541
 20
5674862.23820315
 10
319857.311011541
 20
5674875.12557996
 10
319860.848478744
 20
5674873.69587098
 10
319862.019388634
 20
5674876.77524418
 10
319865.886689608
 20
5674875.32553926
 10
319864.633321275
 20
5674872.25616403
 10
319869.910661625
 20
5674870.08660563
 10
319879.929362445
 20
5674865.98744001
 10
319879.558299451
 20
5674865.03763334
 10
319886.047778912
 20
5674862.31818687
 10
319886.443579438
 20
5674863.31798337
 10
319887.59799764
 20
5674866.22739116
 10
319900.445023053
 20
5674861.08843718
 10
319907.800316165
 20
5674858.13903753
 10
319906.703618874
 20
5674855.18963787
 10
319922.230543683
 20
5674849.18086094
 10
319921.826497313
 20
5674848.12107665
 10
319931.300972409
 20
5674844.33184794
 10
319931.738002157
 20
5674845.47161594
 10
319941.0722979
 20
5674841.82235874
 10
319970.542945414
 20
5674830.33469702
 10
319979.646357517
 20
5674826.65544592
 10
319982.664336529
 20
5674825.46568809
 10
319984.404209676
 20
5674824.78582648
 10
319993.169542162
 20
5674821.30653467
 10
319998.801453816
 20
5674819.05699256
 10
319999.073566678
 20
5674818.95701291
 10
320005.604275361
 20
5674816.36753999
 10
320011.318645458
 20
5674814.09800195
 10
320017.033015555
 20
5674811.81846594
 10
320022.763877341
 20
5674809.53892994
 10
320029.311077712
 20
5674806.93945905
 10
320030.514970979
 20
5674806.45955673
 10
320044.466939528
 20
5674801.02066381
 10
320050.832731325
 20
5674798.5111746
 10
320056.662543242
 20
5674796.21164267
 10
320057.882928198
 20
5674795.73174035
 10
320057.882928198
 20
5674794.59197235
 10
320028.437018216
 20
5674794.59197235
 10
320025.254122318
 20
5674795.85171593
 10
320019.952044436
 20
5674797.9412906
 10
320014.757162529
 20
5674800.11084899
 10
320007.847145009
 20
5674802.85029139
 10
320001.316436327
 20
5674805.45976024
 10
319994.299222831
 20
5674808.25919042
 10
319986.226541265
 20
5674811.4885331
 10
319980.240058306
 20
5674813.90804062
 10
319974.954472112
 20
5674815.95762343
 10
319969.611165008
 20
5674818.0471981
 10
319959.105959375
 20
5674822.1263678
 10
319951.618732754
 20
5674825.0357756
 10
319950.109743248
 20
5674825.63565349
 10
319947.025797482
 20
5674826.82541132
 10
319943.64500132
 20
5674828.15514066
 10
319937.773960181
 20
5674830.43467667
 10
319937.592551607
 20
5674830.51466039
 10
319932.562586586
 20
5674832.49425745
 10
319927.375950524
 20
5674834.55383822
 10
319919.509415066
 20
5674837.65320736
 10
319919.080631162
 20
5674837.82317276
 10
319918.420963619
 20
5674838.08311985
 10
319910.010202437
 20
5674841.41244218
 10
319903.454756221
 20
5674844.0019151
 10
319895.711908427
 20
5674847.06129237
 10
319890.99528549
 20
5674848.93091181
 10
319890.525272365
 20
5674849.11087518
 10
319885.231440327
 20
5674851.20044986
 10
319879.335661655
 20
5674853.52997569
 10
319878.23071852
 20
5674853.96988614
 10
319869.655040452
 20
5674857.35919626
 10
319859.19106404
 20
5674861.49835375
 10
319857.311011541
 20
5674862.23820315
  0
LWPOLYLINE
  5
202AF
  8
Eigentuemer_Stadt
100
AcDbEntity
100
AcDbPolyline
 70
0
 90
17
 62
7
370
0
 10
319857.311011541
 20
5674875.12557996
 10
319857.311011541
 20
5674903.65977191
 10
319857.368732451
 20
5674903.70976174
 10
319899.719388755
 20
5674941.91198578
 10
319927.36770468
 20
5674941.91198578
 10
319914.553662644
 20
5674934.01359348
 10
319913.423981975
 20
5674933.02379495
 10
319898.103203273
 20
5674919.23660129
 10
319887.292901401
 20
5674909.49858344
 10
319880.663242587
 20
5674902.23006292
 10
319878.840910998
 20
5674899.53061239
 10
319874.033583773
 20
5674892.42205932
 10
319869.349944213
 20
5674883.77381964
 10
319865.886689608
 20
5674875.32553926
 10
319862.019388634
 20
5674876.77524418
 10
319860.848478744
 20
5674873.69587098
 10
319857.311011541
 20
5674875.12557996
  0
LWPOLYLINE
  5
202B0
  8
Eigentuemer_Stadt
100
AcDbEntity
100
AcDbPolyline
 70
0
 90
6
 62
7
370
0
 10
319857.311011541
 20
5674903.65977191
 10
319857.311011541
 20
5674920.38636726
 10
319881.331155975
 20
5674941.91198578
 10
319899.719388755
 20
5674941.91198578
 10
319857.368732451
 20
5674903.70976174
 10
319857.311011541
 20
5674903.65977191
  0
LWPOLYLINE
  5
202B1
  8
FNP_Aend_Anp
100
AcDbEntity
100
AcDbPolyline
 70
0
 90
21
 62
7
370
0
 10
320057.882928198
 20
5674819.55689081
 10
320057.882928198
 20
5674794.59197235
 10
320049.694804812
 20
5674794.59197235
 10
319925.462914647
 20
5674845.5416017
 10
319861.879209281
 20
5674870.95642858
 10
319872.400906602
 20
5674889.78259657
 10
319875.41063977
 20
5674894.32167265
 10
319880.671488431
 20
5674902.28005275
 10
319888.166960896
 20
5674909.338616
 10
319916.483190209
 20
5674898.59080369
 10
319918.973435186
 20
5674905.17946258
 10
319935.827940928
 20
5674898.91073856
 10
319934.962127276
 20
5674895.97133687
 10
319948.21319906
 20
5674892.83197588
 10
319948.015298797
 20
5674888.00295881
 10
319998.084065363
 20
5674875.91541919
 10
320024.874813481
 20
5674867.3871551
 10
320015.664205402
 20
5674842.12229769
 10
320054.460902815
 20
5674827.1453462
 10
320052.226279011
 20
5674821.83642682
 10
320057.882928198
 20
5674819.55689081
  0
LWPOLYLINE
  5
202B2
  8
FNP_Aend_Anp
100
AcDbEntity
100
AcDbPolyline
 70
0
 90
8
 62
7
370
0
 10
320027.398041835
 20
5674794.59197235
 10
319926.905937399
 20
5674794.59197235
 10
319898.07846574
 20
5674811.35855956
 10
319857.311011541
 20
5674825.98558227
 10
319857.311011541
 20
5674861.3983741
 10
319870.858933719
 20
5674856.44938145
 10
319934.10455947
 20
5674831.47446502
 10
320027.398041835
 20
5674794.59197235
  0
LWPOLYLINE
  5
202B3
  8
FNP_Ausgestaltung_F
100
AcDbEntity
100
AcDbPolyline
 70
0
 90
5
 62
7
370
0
 10
319954.438811504
 20
5674826.44548866
 10
319887.004296851
 20
5674853.80991871
 10
319887.532030886
 20
5674854.98967857
 10
319954.925316317
 20
5674827.64524445
 10
319954.438811504
 20
5674826.44548866
  0
LWPOLYLINE
  5
202B4
  8
FNP_Ausgestaltung_F
100
AcDbEntity
100
AcDbPolyline
 70
0
 90
5
 62
7
370
0
 10
320029.500732131
 20
5674795.91170372
 10
319990.621576275
 20
5674811.6884924
 10
319991.108081088
 20
5674812.87825023
 10
320029.9789911
 20
5674797.11145951
 10
320029.500732131
 20
5674795.91170372
  0
LWPOLYLINE
  5
202B5
  8
FNP_Ausgestaltung_F
100
AcDbEntity
100
AcDbPolyline
 70
0
 90
11
 62
7
370
0
 10
319857.311011541
 20
5674857.94907619
 10
319857.311011541
 20
5674860.13863051
 10
319863.330477877
 20
5674848.2210563
 10
319880.498325701
 20
5674856.64934075
 10
319871.873172567
 20
5674873.69587098
 10
319857.311011541
 20
5674866.56732197
 10
319857.311011541
 20
5674867.67709608
 10
319872.326694004
 20
5674875.04559624
 10
319881.834152477
 20
5674856.20943029
 10
319862.885202285
 20
5674846.89132696
 10
319857.311011541
 20
5674857.94907619
  0
LWPOLYLINE
  5
202B6
  8
FNP_Ausgestaltung_F
100
AcDbEntity
100
AcDbPolyline
 70
0
 90
5
 62
7
370
0
 10
319985.896707493
 20
5674814.21797753
 10
319968.2506007
 20
5674806.8694733
 10
319960.697407324
 20
5674824.44589567
 10
319978.351759962
 20
5674831.764406
 10
319985.896707493
 20
5674814.21797753
  0
LWPOLYLINE
  5
202B7
  8
FNP_Ausgestaltung_F
100
AcDbEntity
100
AcDbPolyline
 70
0
 90
8
 62
7
370
0
 10
320056.629559865
 20
5674794.59197235
 10
320055.541108418
 20
5674794.59197235
 10
320052.481900184
 20
5674801.69052746
 10
320035.388264958
 20
5674794.59197235
 10
320033.6648835
 20
5674794.59197235
 10
320033.541195836
 20
5674794.8919113
 10
320053.026125907
 20
5674803.00026086
 10
320056.629559865
 20
5674794.59197235
  0
LWPOLYLINE
  5
202B8
  8
FNP_Ausgestaltung_F
100
AcDbEntity
100
AcDbPolyline
 70
0
 90
5
 62
7
370
0
 10
319959.40280977
 20
5674824.97578781
 10
319978.887739842
 20
5674833.08413738
 10
319987.207796736
 20
5674813.68808539
 10
319967.722866665
 20
5674805.55973989
 10
319959.40280977
 20
5674824.97578781
  0
LWPOLYLINE
  5
202B9
  8
FNP_Bodennutzung
100
AcDbEntity
100
AcDbPolyline
 70
0
 90
16
 62
7
370
0
 10
319928.563352103
 20
5674941.91198578
 10
320057.882928198
 20
5674941.91198578
 10
320057.882928198
 20
5674836.19350448
 10
320054.460902815
 20
5674827.1453462
 10
320015.664205402
 20
5674842.12229769
 10
320024.874813481
 20
5674867.3871551
 10
319998.084065363
 20
5674875.91541919
 10
319948.015298797
 20
5674888.00295881
 10
319948.21319906
 20
5674892.83197588
 10
319934.962127276
 20
5674895.97133687
 10
319935.827940928
 20
5674898.91073856
 10
319918.973435186
 20
5674905.17946258
 10
319916.483190209
 20
5674898.59080369
 10
319888.166960896
 20
5674909.338616
 10
319897.765123657
 20
5674915.80729932
 10
319928.563352103
 20
5674941.91198578
  0
LWPOLYLINE
  5
202BA
  8
FNP_Bodennutzung
100
AcDbEntity
100
AcDbPolyline
 70
0
 90
6
 62
7
370
0
 10
320027.398041835
 20
5674794.59197235
 10
319857.311011541
 20
5674794.59197235
 10
319857.311011541
 20
5674861.3983741
 10
319870.858933719
 20
5674856.44938145
 10
319934.10455947
 20
5674831.47446502
 10
320027.398041835
 20
5674794.59197235
  0
LWPOLYLINE
  5
202BB
  8
FNP_Bodennutzung
100
AcDbEntity
100
AcDbPolyline
 70
0
 90
5
 62
7
370
0
 10
319887.226934647
 20
5674941.91198578
 10
319875.229231196
 20
5674929.14458455
 10
319857.311011541
 20
5674903.01990215
 10
319857.311011541
 20
5674941.91198578
 10
319887.226934647
 20
5674941.91198578
  0
LWPOLYLINE
  5
202BC
  8
FNP_Bodennutzung
100
AcDbEntity
100
AcDbPolyline
 70
0
 90
20
 62
7
370
0
 10
319861.879209281
 20
5674870.95642858
 10
319872.400906602
 20
5674889.78259657
 10
319875.41063977
 20
5674894.32167265
 10
319880.671488431
 20
5674902.28005275
 10
319888.166960896
 20
5674909.338616
 10
319916.483190209
 20
5674898.59080369
 10
319918.973435186
 20
5674905.17946258
 10
319935.827940928
 20
5674898.91073856
 10
319934.962127276
 20
5674895.97133687
 10
319948.21319906
 20
5674892.83197588
 10
319948.015298797
 20
5674888.00295881
 10
319998.084065363
 20
5674875.91541919
 10
320024.874813481
 20
5674867.3871551
 10
320015.664205402
 20
5674842.12229769
 10
320054.460902815
 20
5674827.1453462
 10
320057.882928198
 20
5674836.19350448
 10
320057.882928198
 20
5674794.59197235
 10
320049.694804812
 20
5674794.59197235
 10
319925.462914647
 20
5674845.5416017
 10
319861.879209281
 20
5674870.95642858
  0
LWPOLYLINE
  5
202BD
  8
FNP_Bodennutzung
100
AcDbEntity
100
AcDbPolyline
 70
0
 90
17
 62
7
370
0
 10
319857.311011541
 20
5674861.3983741
 10
319857.311011541
 20
5674903.01990215
 10
319875.229231196
 20
5674929.14458455
 10
319887.226934647
 20
5674941.91198578
 10
319928.563352103
 20
5674941.91198578
 10
319897.765123657
 20
5674915.80729932
 10
319888.166960896
 20
5674909.338616
 10
319880.671488431
 20
5674902.28005275
 10
319875.41063977
 20
5674894.32167265
 10
319872.400906602
 20
5674889.78259657
 10
319861.879209281
 20
5674870.95642858
 10
319925.462914647
 20
5674845.5416017
 10
320049.694804812
 20
5674794.59197235
 10
320027.398041835
 20
5674794.59197235
 10
319934.10455947
 20
5674831.47446502
 10
319870.858933719
 20
5674856.44938145
 10
319857.311011541
 20
5674861.3983741
  0
LWPOLYLINE
  5
202BE
  8
LaSchVO_Symbole
100
AcDbEntity
100
AcDbPolyline
 70
0
 90
5
 62
7
370
0
 10
319868.945897842
 20
5674941.91198578
 10
319872.392660758
 20
5674941.91198578
 10
319879.846904002
 20
5674934.16356295
 10
319878.065801634
 20
5674932.43391502
 10
319868.945897842
 20
5674941.91198578
  0
LWPOLYLINE
  5
202BF
  8
LaSchVO_Symbole
100
AcDbEntity
100
AcDbPolyline
 70
0
 90
4
 62
7
370
0
 10
319886.204449954
 20
5674941.91198578
 10
319887.903093879
 20
5674941.91198578
 10
319887.012542695
 20
5674941.07215673
 10
319886.204449954
 20
5674941.91198578
  0
LWPOLYLINE
  5
202C0
  8
LaSchVO
100
AcDbEntity
100
AcDbPolyline
 70
0
 90
5
 62
7
370
0
 10
319857.311011541
 20
5674903.01990215
 10
319857.311011541
 20
5674941.91198578
 10
319887.226934647
 20
5674941.91198578
 10
319875.229231196
 20
5674929.14458455
 10
319857.311011541
 20
5674903.01990215
  0
LWPOLYLINE
  5
202C1
  8
LaSchVO
100
AcDbEntity
100
AcDbPolyline
 70
0
 90
4
 62
7
370
0
 10
319896.775622341
 20
5674941.91198578
 10
319905.186383523
 20
5674941.91198578
 10
319893.064992408
 20
5674938.65264921
 10
319896.775622341
 20
5674941.91198578
  0
POINT
  5
202C2
  8
Adressen
100
AcDbEntity
100
AcDbPoint
 10
320014.311886937
 20
5674813.52811795
  0
POINT
  5
202C3
  8
Adressen
100
AcDbEntity
100
AcDbPoint
 10
320016.958802956
 20
5674797.46138829
  0
POINT
  5
202C4
  8
Adressen
100
AcDbEntity
100
AcDbPoint
 10
320052.152066412
 20
5674862.81808512
  0
POINT
  5
202C5
  8
Adressen
100
AcDbEntity
100
AcDbPoint
 10
320035.759327951
 20
5674821.5564838
  0
POINT
  5
202C6
  8
Adressen
100
AcDbEntity
100
AcDbPoint
 10
319914.141370429
 20
5674852.95009372
  0
POINT
  5
202C7
  8
Adressen
100
AcDbEntity
100
AcDbPoint
 10
320044.574135504
 20
5674843.81195376
  0
POINT
  5
202C8
  8
Adressen
100
AcDbEntity
100
AcDbPoint
 10
319946.300163184
 20
5674924.7954698
  0
POINT
  5
202C9
  8
Adressen
100
AcDbEntity
100
AcDbPoint
 10
319938.96136176
 20
5674926.49512384
  0
POINT
  5
202CA
  8
Adressen
100
AcDbEntity
100
AcDbPoint
 10
320051.607840688
 20
5674815.09779845
  0
POINT
  5
202CB
  8
Adressen
100
AcDbEntity
100
AcDbPoint
 10
319989.681550025
 20
5674808.42915583
  0
POINT
  5
202CC
  8
Adressen
100
AcDbEntity
100
AcDbPoint
 10
320002.45436284
 20
5674927.60489795
  0
POINT
  5
202CD
  8
Adressen
100
AcDbEntity
100
AcDbPoint
 10
319899.30709654
 20
5674800.72072486
  0
POINT
  5
202CE
  8
Adressen
100
AcDbEntity
100
AcDbPoint
 10
319906.349047569
 20
5674841.21248288
  0
POINT
  5
202CF
  8
Adressen
100
AcDbEntity
100
AcDbPoint
 10
319883.409108738
 20
5674865.20759874
  0
POINT
  5
202D0
  8
Adressen
100
AcDbEntity
100
AcDbPoint
 10
319926.501891029
 20
5674846.84133714
  0
POINT
  5
202D1
  8
Adressen
100
AcDbEntity
100
AcDbPoint
 10
319971.82105128
 20
5674815.52771094
  0
POINT
  5
202D2
  8
Adressen
100
AcDbEntity
100
AcDbPoint
 10
319976.356265643
 20
5674935.37331671
  0
POINT
  5
202D3
  8
Adressen
100
AcDbEntity
100
AcDbPoint
 10
320010.757928046
 20
5674800.0808551
  0
POINT
  5
202D4
  8
Adressen
100
AcDbEntity
100
AcDbPoint
 10
319922.881965383
 20
5674834.63382194
  0
POINT
  5
202D5
  8
Adressen
100
AcDbEntity
100
AcDbPoint
 10
319959.5759725
 20
5674921.44615155
  0
POINT
  5
202D6
  8
Adressen
100
AcDbEntity
100
AcDbPoint
 10
319863.825228534
 20
5674858.04905584
  0
POINT
  5
202D7
  8
Adressen
100
AcDbEntity
100
AcDbPoint
 10
319874.94887249
 20
5674868.7568763
  0
POINT
  5
202D8
  8
Adressen
100
AcDbEntity
100
AcDbPoint
 10
319914.223828872
 20
5674838.08311985
  0
POINT
  5
202D9
  8
Adressen
100
AcDbEntity
100
AcDbPoint
 10
319990.201038216
 20
5674823.31612563
  0
POINT
  5
202DA
  8
Adressen
100
AcDbEntity
100
AcDbPoint
 10
320026.433278053
 20
5674808.82907443
  0
POINT
  5
202DB
  8
Adressen
100
AcDbEntity
100
AcDbPoint
 10
320008.704712816
 20
5674815.85764378
  0
POINT
  5
202DC
  8
Adressen
100
AcDbEntity
100
AcDbPoint
 10
320025.427285048
 20
5674921.46614747
  0
POINT
  5
202DD
  8
Adressen
100
AcDbEntity
100
AcDbPoint
 10
319982.24379847
 20
5674915.41737868
  0
POINT
  5
202DE
  8
Adressen
100
AcDbEntity
100
AcDbPoint
 10
320032.922757514
 20
5674869.81666058
  0
POINT
  5
202DF
  8
Adressen
100
AcDbEntity
100
AcDbPoint
 10
319977.230325138
 20
5674813.40814237
  0
POINT
  5
202E0
  8
Adressen
100
AcDbEntity
100
AcDbPoint
 10
320021.980522133
 20
5674795.45179733
  0
POINT
  5
202E1
  8
Adressen
100
AcDbEntity
100
AcDbPoint
 10
320019.927306903
 20
5674811.29857177
  0
POINT
  5
202E2
  8
Adressen
100
AcDbEntity
100
AcDbPoint
 10
320047.996160887
 20
5674800.24082254
  0
POINT
  5
202E3
  8
Adressen
100
AcDbEntity
100
AcDbPoint
 10
320055.846204657
 20
5674872.3761396
  0
POINT
  5
202E4
  8
Adressen
100
AcDbEntity
100
AcDbPoint
 10
319934.533343373
 20
5674830.14473568
  0
POINT
  5
202E5
  8
Adressen
100
AcDbEntity
100
AcDbPoint
 10
319881.718710657
 20
5674850.9305048
  0
POINT
  5
202E6
  8
Adressen
100
AcDbEntity
100
AcDbPoint
 10
320047.921948288
 20
5674852.39020768
  0
POINT
  5
202E7
  8
Adressen
100
AcDbEntity
100
AcDbPoint
 10
319873.646029091
 20
5674854.15984748
  0
POINT
  5
202E8
  8
Adressen
100
AcDbEntity
100
AcDbPoint
 10
319997.366676909
 20
5674805.36977856
  0
POINT
  5
202E9
  8
Adressen
100
AcDbEntity
100
AcDbPoint
 10
319899.051475367
 20
5674844.01191306
  0
POINT
  5
202EA
  8
Adressen
100
AcDbEntity
100
AcDbPoint
 10
319893.345351114
 20
5674846.35143686
  0
POINT
  5
202EB
  8
Adressen
100
AcDbEntity
100
AcDbPoint
 10
319990.201038216
 20
5674823.31612563
  0
POINT
  5
202EC
  8
Adressen
100
AcDbEntity
100
AcDbPoint
 10
319975.515189524
 20
5674829.12494326
  0
POINT
  5
202ED
  8
Adressen
100
AcDbEntity
100
AcDbPoint
 10
319893.097975785
 20
5674864.61771881
  0
POINT
  5
202EE
  8
Adressen
100
AcDbEntity
100
AcDbPoint
 10
320004.054056633
 20
5674802.67032802
  0
POINT
  5
202EF
  8
Adressen
100
AcDbEntity
100
AcDbPoint
 10
320004.62301989
 20
5674909.59856309
  0
POINT
  5
202F0
  8
Adressen
100
AcDbEntity
100
AcDbPoint
 10
320041.787040132
 20
5674836.82337627
  0
POINT
  5
202F1
  8
Adressen
100
AcDbEntity
100
AcDbPoint
 10
319929.693032771
 20
5674832.04434902
  0
POINT
  5
202F2
  8
Adressen
100
AcDbEntity
100
AcDbPoint
 10
319982.689074062
 20
5674811.25857991
  0
POINT
  5
202F3
  8
Adressen
100
AcDbEntity
100
AcDbPoint
 10
319904.320569872
 20
5674860.15862644
  0
POINT
  5
202F4
  8
Adressen
100
AcDbEntity
100
AcDbPoint
 10
319887.235180491
 20
5674848.70095862
  0
POINT
  5
202F5
  8
Adressen
100
AcDbEntity
100
AcDbPoint
 10
320024.231637625
 20
5674904.39962132
  0
POINT
  5
202F6
  8
Adressen
100
AcDbEntity
100
AcDbPoint
 10
320054.10633151
 20
5674797.79132113
  0
POINT
  5
202F7
  8
Adressen
100
AcDbEntity
100
AcDbPoint
 10
319936.347429118
 20
5674842.93213285
  0
POINT
  5
202F8
  8
Adressen
100
AcDbEntity
100
AcDbPoint
 10
319914.141370429
 20
5674852.95009372
  0
POINT
  5
202F9
  8
Adressen
100
AcDbEntity
100
AcDbPoint
 10
319990.201038216
 20
5674823.31612563
  0
POINT
  5
202FA
  8
Adressen
100
AcDbEntity
100
AcDbPoint
 10
319990.201038216
 20
5674823.31612563
  0
POINT
  5
202FB
  8
Adressen
100
AcDbEntity
100
AcDbPoint
 10
319953.630718763
 20
5674810.44874475
  0
POINT
  5
202FC
  8
Adressen
100
AcDbEntity
100
AcDbPoint
 10
319942.869891956
 20
5674827.13534824
  0
POINT
  5
202FD
  8
Adressen
100
AcDbEntity
100
AcDbPoint
 10
319947.998807109
 20
5674812.69828686
  0
POINT
  5
202FE
  8
Adressen
100
AcDbEntity
100
AcDbPoint
 10
319939.1922454
 20
5674828.57505519
  0
POINT
  5
202FF
  8
Adressen
100
AcDbEntity
100
AcDbPoint
 10
319950.719935726
 20
5674811.60850868
  0
POINT
  5
20300
  8
Adressen
100
AcDbEntity
100
AcDbPoint
 10
319960.128444068
 20
5674820.69665881
  0
POINT
  5
20301
  8
Adressen
100
AcDbEntity
100
AcDbPoint
 10
319947.883365288
 20
5674825.35571048
  0
POINT
  5
20302
  8
Flurstuecke
100
AcDbEntity
100
AcDbPoint
 10
320057.759240533
 20
5674927.1349936
  0
POINT
  5
20303
  8
Flurstuecke
100
AcDbEntity
100
AcDbPoint
 10
320020.059240412
 20
5674884.39369347
  0
POINT
  5
20304
  8
Flurstuecke
100
AcDbEntity
100
AcDbPoint
 10
320037.169367326
 20
5674865.73749088
  0
POINT
  5
20305
  8
Flurstuecke
100
AcDbEntity
100
AcDbPoint
 10
319998.892158104
 20
5674889.8325864
  0
POINT
  5
20306
  8
Flurstuecke
100
AcDbEntity
100
AcDbPoint
 10
320024.520242176
 20
5674912.80790983
  0
POINT
  5
20307
  8
Flurstuecke
100
AcDbEntity
100
AcDbPoint
 10
320026.58170325
 20
5674827.27531975
  0
POINT
  5
20308
  8
Flurstuecke
100
AcDbEntity
100
AcDbPoint
 10
319976.166611224
 20
5674895.95134094
  0
POINT
  5
20309
  8
Flurstuecke
100
AcDbEntity
100
AcDbPoint
 10
319924.753772038
 20
5674879.84461942
  0
POINT
  5
2030A
  8
Flurstuecke
100
AcDbEntity
100
AcDbPoint
 10
320020.916808218
 20
5674844.53180724
  0
POINT
  5
2030B
  8
Flurstuecke
100
AcDbEntity
100
AcDbPoint
 10
319885.973566314
 20
5674894.13171132
  0
POINT
  5
2030C
  8
Flurstuecke
100
AcDbEntity
100
AcDbPoint
 10
319941.946357395
 20
5674904.87952363
  0
POINT
  5
2030D
  8
Flurstuecke
100
AcDbEntity
100
AcDbPoint
 10
320033.714358566
 20
5674857.15923696
  0
POINT
  5
2030E
  8
Flurstuecke
100
AcDbEntity
100
AcDbPoint
 10
319954.422319815
 20
5674901.56019927
  0
POINT
  5
2030F
  8
Flurstuecke
100
AcDbEntity
100
AcDbPoint
 10
319908.38577111
 20
5674905.13947072
  0
POINT
  5
20310
  8
Flurstuecke
100
AcDbEntity
100
AcDbPoint
 10
319894.128706322
 20
5674891.13232184
  0
POINT
  5
20311
  8
Flurstuecke
100
AcDbEntity
100
AcDbPoint
 10
320023.712149435
 20
5674851.72034403
  0
POINT
  5
20312
  8
Flurstuecke
100
AcDbEntity
100
AcDbPoint
 10
320048.71354934
 20
5674831.24451183
  0
POINT
  5
20313
  8
Flurstuecke
100
AcDbEntity
100
AcDbPoint
 10
319885.981812158
 20
5674828.85499821
  0
POINT
  5
20314
  8
Flurstuecke
100
AcDbEntity
100
AcDbPoint
 10
319875.0065934
 20
5674833.7340051
  0
POINT
  5
20315
  8
Flurstuecke
100
AcDbEntity
100
AcDbPoint
 10
319898.408299512
 20
5674797.70133944
  0
POINT
  5
20316
  8
Flurstuecke
100
AcDbEntity
100
AcDbPoint
 10
320035.330544048
 20
5674880.41450342
  0
POINT
  5
20317
  8
Flurstuecke
100
AcDbEntity
100
AcDbPoint
 10
319988.642573644
 20
5674860.3985776
  0
POINT
  5
20318
  8
Flurstuecke
100
AcDbEntity
100
AcDbPoint
 10
319962.107446699
 20
5674860.93846771
  0
POINT
  5
20319
  8
Flurstuecke
100
AcDbEntity
100
AcDbPoint
 10
320033.425754016
 20
5674941.52206515
  0
POINT
  5
2031A
  8
Flurstuecke
100
AcDbEntity
100
AcDbPoint
 10
319920.927700285
 20
5674921.53613323
  0
POINT
  5
2031B
  8
Flurstuecke
100
AcDbEntity
100
AcDbPoint
 10
320040.69034284
 20
5674888.32289369
  0
POINT
  5
2031C
  8
Flurstuecke
100
AcDbEntity
100
AcDbPoint
 10
320043.221817039
 20
5674896.50122901
  0
POINT
  5
2031D
  8
Flurstuecke
100
AcDbEntity
100
AcDbPoint
 10
319932.208015282
 20
5674807.13941835
  0
POINT
  5
2031E
  8
Flurstuecke
100
AcDbEntity
100
AcDbPoint
 10
319911.271816614
 20
5674805.36977856
  0
POINT
  5
2031F
  8
Flurstuecke
100
AcDbEntity
100
AcDbPoint
 10
319955.782884124
 20
5674795.50178716
  0
POINT
  5
20320
  8
Flurstuecke
100
AcDbEntity
100
AcDbPoint
 10
319937.081309261
 20
5674801.54055798
  0
POINT
  5
20321
  8
Flurstuecke
100
AcDbEntity
100
AcDbPoint
 10
319906.86853576
 20
5674891.27229335
  0
POINT
  5
20322
  8
Flurstuecke
100
AcDbEntity
100
AcDbPoint
 10
319860.221794577
 20
5674839.1529021
  0
POINT
  5
20323
  8
Flurstuecke
100
AcDbEntity
100
AcDbPoint
 10
319880.737455186
 20
5674830.90458102
  0
POINT
  5
20324
  8
Flurstuecke
100
AcDbEntity
100
AcDbPoint
 10
319903.157905827
 20
5674827.49527498
  0
POINT
  5
20325
  8
Flurstuecke
100
AcDbEntity
100
AcDbPoint
 10
319867.255499762
 20
5674836.59342307
  0
POINT
  5
20326
  8
Flurstuecke
100
AcDbEntity
100
AcDbPoint
 10
319935.193010917
 20
5674910.72833313
  0
POINT
  5
20327
  8
Flurstuecke
100
AcDbEntity
100
AcDbPoint
 10
319874.157271437
 20
5674849.81073273
  0
POINT
  5
20328
  8
Flurstuecke
100
AcDbEntity
100
AcDbPoint
 10
319917.711821009
 20
5674802.77030767
  0
POINT
  5
20329
  8
Flurstuecke
100
AcDbEntity
100
AcDbPoint
 10
319868.047100814
 20
5674814.89783915
  0
POINT
  5
2032A
  8
Flurstuecke
100
AcDbEntity
100
AcDbPoint
 10
319859.768273141
 20
5674794.90190926
  0
POINT
  5
2032B
  8
Flurstuecke
100
AcDbEntity
100
AcDbPoint
 10
319962.123938388
 20
5674934.14356702
  0
POINT
  5
2032C
  8
Flurstuecke
100
AcDbEntity
100
AcDbPoint
 10
320035.808803017
 20
5674831.3944813
  0
POINT
  5
2032D
  8
Flurstuecke
100
AcDbEntity
100
AcDbPoint
 10
320049.958671829
 20
5674821.37652043
  0
POINT
  5
2032E
  8
Flurstuecke
100
AcDbEntity
100
AcDbPoint
 10
320055.145307891
 20
5674812.21838454
  0
POINT
  5
2032F
  8
Flurstuecke
100
AcDbEntity
100
AcDbPoint
 10
320005.744454714
 20
5674939.4824803
  0
POINT
  5
20330
  8
Flurstuecke
100
AcDbEntity
100
AcDbPoint
 10
320017.923566739
 20
5674851.9003074
  0
POINT
  5
20331
  8
Flurstuecke
100
AcDbEntity
100
AcDbPoint
 10
320057.652044557
 20
5674811.18859415
  0
POINT
  5
20332
  8
Flurstuecke
100
AcDbEntity
100
AcDbPoint
 10
320029.467748753
 20
5674833.84398271
  0
POINT
  5
20333
  8
Flurstuecke
100
AcDbEntity
100
AcDbPoint
 10
319976.512936684
 20
5674930.26435663
  0
POINT
  5
20334
  8
Flurstuecke
100
AcDbEntity
100
AcDbPoint
 10
320030.275841495
 20
5674932.57388653
  0
POINT
  5
20335
  8
Flurstuecke
100
AcDbEntity
100
AcDbPoint
 10
320024.544979709
 20
5674835.36367339
  0
POINT
  5
20336
  8
Flurstuecke
100
AcDbEntity
100
AcDbPoint
 10
319988.09834792
 20
5674841.15249509
  0
POINT
  5
20337
  8
Flurstuecke
100
AcDbEntity
100
AcDbPoint
 10
319983.728050443
 20
5674928.14478806
  0
POINT
  5
20338
  8
Flurstuecke
100
AcDbEntity
100
AcDbPoint
 10
320031.520963983
 20
5674825.93559244
  0
POINT
  5
20339
  8
Flurstuecke
100
AcDbEntity
100
AcDbPoint
 10
320017.766895697
 20
5674837.99313817
  0
POINT
  5
2033A
  8
Flurstuecke
100
AcDbEntity
100
AcDbPoint
 10
319985.492661123
 20
5674934.11357313
  0
POINT
  5
2033B
  8
Flurstuecke
100
AcDbEntity
100
AcDbPoint
 10
319932.908912047
 20
5674866.59731587
  0
POINT
  5
2033C
  8
Flurstuecke
100
AcDbEntity
100
AcDbPoint
 10
319871.683518149
 20
5674881.72423683
  0
POINT
  5
2033D
  8
Flurstuecke
100
AcDbEntity
100
AcDbPoint
 10
319872.879165571
 20
5674794.78193368
  0
POINT
  5
2033E
  8
Flurstuecke
100
AcDbEntity
100
AcDbPoint
 10
319875.773456919
 20
5674803.07024662
  0
POINT
  5
2033F
  8
Flurstuecke
100
AcDbEntity
100
AcDbPoint
 10
319922.840736161
 20
5674800.680733
  0
POINT
  5
20340
  8
Flurstuecke
100
AcDbEntity
100
AcDbPoint
 10
319891.184939909
 20
5674806.22960354
  0
POINT
  5
20341
  8
Flurstuecke
100
AcDbEntity
100
AcDbPoint
 10
319934.483868307
 20
5674858.4889663
  0
POINT
  5
20342
  8
Flurstuecke
100
AcDbEntity
100
AcDbPoint
 10
319915.526672271
 20
5674888.10293846
  0
POINT
  5
20343
  8
Flurstuecke
100
AcDbEntity
100
AcDbPoint
 10
319890.137717683
 20
5674795.50178716
  0
POINT
  5
20344
  8
Flurstuecke
100
AcDbEntity
100
AcDbPoint
 10
319887.078509449
 20
5674796.39160604
  0
POINT
  5
20345
  8
Flurstuecke
100
AcDbEntity
100
AcDbPoint
 10
320002.759459079
 20
5674835.96355128
  0
POINT
  5
20346
  8
Flurstuecke
100
AcDbEntity
100
AcDbPoint
 10
319912.95396885
 20
5674827.33530754
  0
POINT
  5
20347
  8
Flurstuecke
100
AcDbEntity
100
AcDbPoint
 10
319874.701497161
 20
5674799.83090598
  0
POINT
  5
20348
  8
Flurstuecke
100
AcDbEntity
100
AcDbPoint
 10
319879.706724649
 20
5674798.57116239
  0
POINT
  5
20349
  8
Flurstuecke
100
AcDbEntity
100
AcDbPoint
 10
319914.471204201
 20
5674866.83726703
  0
POINT
  5
2034A
  8
Flurstuecke
100
AcDbEntity
100
AcDbPoint
 10
319880.836405317
 20
5674801.28061089
  0
POINT
  5
2034B
  8
Flurstuecke
100
AcDbEntity
100
AcDbPoint
 10
319950.637477283
 20
5674908.32882154
  0
POINT
  5
2034C
  8
Flurstuecke
100
AcDbEntity
100
AcDbPoint
 10
319913.127131581
 20
5674883.82380946
  0
ENDSEC
  0
SECTION
  2
OBJECTS
  0
DICTIONARY
  5
C
330
0
100
AcDbDictionary
281
     1
  3
ACAD_GROUP
350
D
  3
ACAD_LAYOUT
350
1A
  3
ACAD_MLEADERSTYLE
350
43
  3
ACAD_MLINESTYLE
350
17
  3
ACAD_PLOTSETTINGS
350
19
  3
ACAD_PLOTSTYLENAME
350
E
  3
ACAD_TABLESTYLE
350
42
  3
ACAD_VISUALSTYLE
350
2A
  0
DICTIONARY
  5
D
102
{ACAD_REACTORS
330
C
102
}
330
C
100
AcDbDictionary
281
     1
  0
DICTIONARY
  5
1A
102
{ACAD_REACTORS
330
C
102
}
330
C
100
AcDbDictionary
281
     1
  3
Layout1
350
1E
  3
Layout2
350
26
  3
Model
350
22
  0
DICTIONARY
  5
43
102
{ACAD_REACTORS
330
C
102
}
330
C
100
AcDbDictionary
281
     1
  0
DICTIONARY
  5
17
102
{ACAD_REACTORS
330
C
102
}
330
C
100
AcDbDictionary
281
     1
  3
Standard
350
18
  0
DICTIONARY
  5
19
102
{ACAD_REACTORS
330
C
102
}
330
C
100
AcDbDictionary
281
     1
  0
ACDBDICTIONARYWDFLT
  5
E
102
{ACAD_REACTORS
330
C
102
}
330
C
100
AcDbDictionary
281
     1
  3
Normal
350
F
100
AcDbDictionaryWithDefault
340
F
  0
DICTIONARY
  5
42
102
{ACAD_REACTORS
330
C
102
}
330
C
100
AcDbDictionary
281
     1
  0
DICTIONARY
  5
2A
102
{ACAD_REACTORS
330
C
102
}
330
C
100
AcDbDictionary
281
     1
  3
2dWireframe
350
2F
  3
3D Hidden
350
31
  3
3dWireframe
350
30
  3
Basic
350
32
  3
Brighten
350
36
  3
ColorChange
350
3A
  3
Conceptual
350
34
  3
Dim
350
35
  3
Facepattern
350
39
  3
Flat
350
2B
  3
FlatWithEdges
350
2C
  3
Gouraud
350
2D
  3
GouraudWithEdges
350
2E
  3
Linepattern
350
38
  3
Realistic
350
33
  3
Thicken
350
37
  0
LAYOUT
  5
1E
102
{ACAD_REACTORS
330
1A
102
}
330
1A
100
AcDbPlotSettings
  1

  2
none_device
  4

  6

 40
0.0
 41
0.0
 42
0.0
 43
0.0
 44
0.0
 45
0.0
 46
0.0
 47
0.0
 48
0.0
 49
0.0
140
0.0
141
0.0
142
1.0
143
1.0
 70
   688
 72
     0
 73
     0
 74
     5
  7

 75
    16
 76
     0
 77
     2
 78
   300
147
1.0
148
0.0
149
0.0
100
AcDbLayout
  1
Layout1
 70
     1
 71
     1
 10
0.0
 20
0.0
 11
12.0
 21
9.0
 12
0.0
 22
0.0
 32
0.0
 14
1.000000000000000E+20
 24
1.000000000000000E+20
 34
1.000000000000000E+20
 15
-1.000000000000000E+20
 25
-1.000000000000000E+20
 35
-1.000000000000000E+20
146
0.0
 13
0.0
 23
0.0
 33
0.0
 16
1.0
 26
0.0
 36
0.0
 17
0.0
 27
1.0
 37
0.0
 76
     0
330
1B
  0
LAYOUT
  5
26
102
{ACAD_REACTORS
330
1A
102
}
330
1A
100
AcDbPlotSettings
  1

  2
none_device
  4

  6

 40
0.0
 41
0.0
 42
0.0
 43
0.0
 44
0.0
 45
0.0
 46
0.0
 47
0.0
 48
0.0
 49
0.0
140
0.0
141
0.0
142
1.0
143
1.0
 70
   688
 72
     0
 73
     0
 74
     5
  7

 75
    16
 76
     0
 77
     2
 78
   300
147
1.0
148
0.0
149
0.0
100
AcDbLayout
  1
Layout2
 70
     1
 71
     2
 10
0.0
 20
0.0
 11
0.0
 21
0.0
 12
0.0
 22
0.0
 32
0.0
 14
0.0
 24
0.0
 34
0.0
 15
0.0
 25
0.0
 35
0.0
146
0.0
 13
0.0
 23
0.0
 33
0.0
 16
1.0
 26
0.0
 36
0.0
 17
0.0
 27
1.0
 37
0.0
 76
     0
330
23
  0
LAYOUT
  5
22
102
{ACAD_REACTORS
330
1A
102
}
330
1A
100
AcDbPlotSettings
  1

  2
none_device
  4

  6

 40
0.0
 41
0.0
 42
0.0
 43
0.0
 44
0.0
 45
0.0
 46
0.0
 47
0.0
 48
0.0
 49
0.0
140
0.0
141
0.0
142
1.0
143
1.0
 70
  1712
 72
     0
 73
     0
 74
     0
  7

 75
     0
 76
     0
 77
     2
 78
   300
147
1.0
148
0.0
149
0.0
100
AcDbLayout
  1
Model
 70
     1
 71
     0
 10
0.0
 20
0.0
 11
12.0
 21
9.0
 12
0.0
 22
0.0
 32
0.0
 14
30.0
 24
49.75
 34
0.0
 15
130.5
 25
163.1318914119703
 35
0.0
146
0.0
 13
0.0
 23
0.0
 33
0.0
 16
1.0
 26
0.0
 36
0.0
 17
0.0
 27
1.0
 37
0.0
 76
     0
330
1F
331
29
  0
MLINESTYLE
  5
18
102
{ACAD_REACTORS
330
17
102
}
330
17
100
AcDbMlineStyle
  2
Standard
 70
     0
  3

 62
   256
 51
90.0
 52
90.0
 71
     2
 49
0.5
 62
   256
  6
BYLAYER
 49
-0.5
 62
   256
  6
BYLAYER
  0
ACDBPLACEHOLDER
  5
F
102
{ACAD_REACTORS
330
E
102
}
330
E
  0
VISUALSTYLE
  5
2F
102
{ACAD_REACTORS
330
2A
102
}
330
2A
100
AcDbVisualStyle
  2
2dWireframe
 70
     4
 71
     0
 72
     2
 73
     0
 90
        0
 40
-0.6
 41
-30.0
 62
     5
 63
     7
421
 16777215
 74
     1
 91
        4
 64
     7
 65
   257
 75
     1
175
     1
 42
1.0
 92
        0
 66
   257
 43
1.0
 76
     1
 77
     6
 78
     2
 67
     7
 79
     5
170
     0
171
     0
290
     0
174
     0
 93
        1
 44
0.0
173
     0
291
     0
 45
0.0
1001
ACAD
1000
AcDbSavedByObjectVersion
1070
     0
  0
VISUALSTYLE
  5
31
102
{ACAD_REACTORS
330
2A
102
}
330
2A
100
AcDbVisualStyle
  2
3D Hidden
 70
     6
 71
     1
 72
     2
 73
     2
 90
        0
 40
-0.6
 41
-30.0
 62
     5
 63
     7
421
 16777215
 74
     2
 91
        2
 64
     7
 65
   257
 75
     2
175
     1
 42
40.0
 92
        0
 66
   257
 43
1.0
 76
     1
 77
     6
 78
     2
 67
     7
 79
     3
170
     0
171
     0
290
     0
174
     0
 93
        1
 44
0.0
173
     0
291
     0
 45
0.0
1001
ACAD
1000
AcDbSavedByObjectVersion
1070
     0
  0
VISUALSTYLE
  5
30
102
{ACAD_REACTORS
330
2A
102
}
330
2A
100
AcDbVisualStyle
  2
3dWireframe
 70
     5
 71
     0
 72
     2
 73
     0
 90
        0
 40
-0.6
 41
-30.0
 62
     5
 63
     7
421
 16777215
 74
     1
 91
        4
 64
     7
 65
   257
 75
     1
175
     1
 42
1.0
 92
        0
 66
   257
 43
1.0
 76
     1
 77
     6
 78
     2
 67
     7
 79
     5
170
     0
171
     0
290
     0
174
     0
 93
        1
 44
0.0
173
     0
291
     0
 45
0.0
1001
ACAD
1000
AcDbSavedByObjectVersion
1070
     0
  0
VISUALSTYLE
  5
32
102
{ACAD_REACTORS
330
2A
102
}
330
2A
100
AcDbVisualStyle
  2
Basic
 70
     7
 71
     1
 72
     0
 73
     1
 90
        0
 40
-0.6
 41
-30.0
 62
     5
 63
     7
421
 16777215
 74
     0
 91
        4
 64
     7
 65
   257
 75
     1
175
     1
 42
1.0
 92
        8
 66
     7
 43
1.0
 76
     1
 77
     6
 78
     2
 67
     7
 79
     5
170
     0
171
     0
290
     0
174
     0
 93
        1
 44
0.0
173
     0
291
     1
 45
0.0
1001
ACAD
1000
AcDbSavedByObjectVersion
1070
     0
  0
VISUALSTYLE
  5
36
102
{ACAD_REACTORS
330
2A
102
}
330
2A
100
AcDbVisualStyle
  2
Brighten
 70
    12
 71
     2
 72
     2
 73
     0
 90
        0
 40
-0.6
 41
-30.0
 62
     5
 63
     7
421
 16777215
 74
     1
 91
        4
 64
     7
 65
   257
 75
     1
175
     1
 42
1.0
 92
        8
 66
     7
 43
1.0
 76
     1
 77
     6
 78
     2
 67
     7
 79
     5
170
     0
171
     0
290
     0
174
     0
 93
        1
 44
50.0
173
     0
291
     1
 45
0.0
1001
ACAD
1000
AcDbSavedByObjectVersion
1070
     0
  0
VISUALSTYLE
  5
3A
102
{ACAD_REACTORS
330
2A
102
}
330
2A
100
AcDbVisualStyle
  2
ColorChange
 70
    16
 71
     2
 72
     2
 73
     3
 90
        0
 40
-0.6
 41
-30.0
 62
     5
 63
     8
421
  8421504
 74
     1
 91
        4
 64
     7
 65
   257
 75
     1
175
     1
 42
1.0
 92
        8
 66
     8
424
  8421504
 43
1.0
 76
     1
 77
     6
 78
     2
 67
     7
 79
     5
170
     0
171
     0
290
     0
174
     0
 93
        1
 44
0.0
173
     0
291
     1
 45
0.0
1001
ACAD
1000
AcDbSavedByObjectVersion
1070
     0
  0
VISUALSTYLE
  5
34
102
{ACAD_REACTORS
330
2A
102
}
330
2A
100
AcDbVisualStyle
  2
Conceptual
 70
     9
 71
     3
 72
     2
 73
     0
 90
        0
 40
-0.6
 41
-30.0
 62
     5
 63
     7
421
 16777215
 74
     2
 91
        2
 64
     7
 65
   257
 75
     1
175
     1
 42
40.0
 92
        8
 66
     7
 43
1.0
 76
     1
 77
     6
 78
     2
 67
     7
 79
     3
170
     0
171
     0
290
     0
174
     0
 93
        1
 44
0.0
173
     0
291
     0
 45
0.0
1001
ACAD
1000
AcDbSavedByObjectVersion
1070
     0
  0
VISUALSTYLE
  5
35
102
{ACAD_REACTORS
330
2A
102
}
330
2A
100
AcDbVisualStyle
  2
Dim
 70
    11
 71
     2
 72
     2
 73
     0
 90
        0
 40
-0.6
 41
-30.0
 62
     5
 63
     7
421
 16777215
 74
     1
 91
        4
 64
     7
 65
   257
 75
     1
175
     1
 42
1.0
 92
        8
 66
     7
 43
1.0
 76
     1
 77
     6
 78
     2
 67
     7
 79
     5
170
     0
171
     0
290
     0
174
     0
 93
        1
 44
-50.0
173
     0
291
     1
 45
0.0
1001
ACAD
1000
AcDbSavedByObjectVersion
1070
     0
  0
VISUALSTYLE
  5
39
102
{ACAD_REACTORS
330
2A
102
}
330
2A
100
AcDbVisualStyle
  2
Facepattern
 70
    15
 71
     2
 72
     2
 73
     0
 90
        0
 40
-0.6
 41
-30.0
 62
     5
 63
     7
421
 16777215
 74
     1
 91
        4
 64
     7
 65
   257
 75
     1
175
     1
 42
1.0
 92
        8
 66
     7
 43
1.0
 76
     1
 77
     6
 78
     2
 67
     7
 79
     5
170
     0
171
     0
290
     0
174
     0
 93
        1
 44
0.0
173
     0
291
     1
 45
0.0
1001
ACAD
1000
AcDbSavedByObjectVersion
1070
     0
  0
VISUALSTYLE
  5
2B
102
{ACAD_REACTORS
330
2A
102
}
330
2A
100
AcDbVisualStyle
  2
Flat
 70
     0
 71
     2
 72
     1
 73
     1
 90
        2
 40
-0.6
 41
30.0
 62
     5
 63
     7
421
 16777215
 74
     0
 91
        4
 64
     7
 65
   257
 75
     1
175
     1
 42
1.0
 92
        8
 66
     7
 43
1.0
 76
     1
 77
     6
 78
     2
 67
     7
 79
     5
170
     0
171
     0
290
     0
174
     0
 93
       13
 44
0.0
173
     0
291
     1
 45
0.0
1001
ACAD
1000
AcDbSavedByObjectVersion
1070
     0
  0
VISUALSTYLE
  5
2C
102
{ACAD_REACTORS
330
2A
102
}
330
2A
100
AcDbVisualStyle
  2
FlatWithEdges
 70
     1
 71
     2
 72
     1
 73
     1
 90
        2
 40
-0.6
 41
30.0
 62
     5
 63
     7
421
 16777215
 74
     1
 91
        4
 64
     7
 65
   257
 75
     1
175
     1
 42
1.0
 92
        0
 66
   257
 43
1.0
 76
     1
 77
     6
 78
     2
 67
     7
 79
     5
170
     0
171
     0
290
     0
174
     0
 93
       13
 44
0.0
173
     0
291
     1
 45
0.0
1001
ACAD
1000
AcDbSavedByObjectVersion
1070
     0
  0
VISUALSTYLE
  5
2D
102
{ACAD_REACTORS
330
2A
102
}
330
2A
100
AcDbVisualStyle
  2
Gouraud
 70
     2
 71
     2
 72
     2
 73
     1
 90
        2
 40
-0.6
 41
30.0
 62
     5
 63
     7
421
 16777215
 74
     0
 91
        4
 64
     7
 65
   257
 75
     1
175
     1
 42
1.0
 92
        0
 66
     7
 43
1.0
 76
     1
 77
     6
 78
     2
 67
     7
 79
     5
170
     0
171
     0
290
     0
174
     0
 93
       13
 44
0.0
173
     0
291
     1
 45
0.0
1001
ACAD
1000
AcDbSavedByObjectVersion
1070
     0
  0
VISUALSTYLE
  5
2E
102
{ACAD_REACTORS
330
2A
102
}
330
2A
100
AcDbVisualStyle
  2
GouraudWithEdges
 70
     3
 71
     2
 72
     2
 73
     1
 90
        2
 40
-0.6
 41
30.0
 62
     5
 63
     7
421
 16777215
 74
     1
 91
        4
 64
     7
 65
   257
 75
     1
175
     1
 42
1.0
 92
        0
 66
   257
 43
1.0
 76
     1
 77
     6
 78
     2
 67
     7
 79
     5
170
     0
171
     0
290
     0
174
     0
 93
       13
 44
0.0
173
     0
291
     1
 45
0.0
1001
ACAD
1000
AcDbSavedByObjectVersion
1070
     0
  0
VISUALSTYLE
  5
38
102
{ACAD_REACTORS
330
2A
102
}
330
2A
100
AcDbVisualStyle
  2
Linepattern
 70
    14
 71
     2
 72
     2
 73
     0
 90
        0
 40
-0.6
 41
-30.0
 62
     5
 63
     7
421
 16777215
 74
     1
 91
        4
 64
     7
 65
   257
 75
     7
175
     7
 42
1.0
 92
        8
 66
     7
 43
1.0
 76
     1
 77
     6
 78
     2
 67
     7
 79
     5
170
     0
171
     0
290
     0
174
     0
 93
        1
 44
0.0
173
     0
291
     1
 45
0.0
1001
ACAD
1000
AcDbSavedByObjectVersion
1070
     0
  0
VISUALSTYLE
  5
33
102
{ACAD_REACTORS
330
2A
102
}
330
2A
100
AcDbVisualStyle
  2
Realistic
 70
     8
 71
     2
 72
     2
 73
     0
 90
        0
 40
-0.6
 41
-30.0
 62
     5
 63
     7
421
 16777215
 74
     1
 91
        0
 64
     7
 65
   257
 75
     1
175
     1
 42
1.0
 92
        8
 66
     8
424
  7895160
 43
1.0
 76
     1
 77
     6
 78
     2
 67
     7
 79
     5
170
     0
171
     0
290
     0
174
     0
 93
       13
 44
0.0
173
     0
291
     0
 45
0.0
1001
ACAD
1000
AcDbSavedByObjectVersion
1070
     0
  0
VISUALSTYLE
  5
37
102
{ACAD_REACTORS
330
2A
102
}
330
2A
100
AcDbVisualStyle
  2
Thicken
 70
    13
 71
     2
 72
     2
 73
     0
 90
        0
 40
-0.6
 41
-30.0
 62
     5
 63
     7
421
 16777215
 74
     1
 91
        4
 64
     7
 65
   257
 75
     1
175
     1
 42
1.0
 92
       12
 66
     7
 43
1.0
 76
     1
 77
     6
 78
     2
 67
     7
 79
     5
170
     0
171
     0
290
     0
174
     0
 93
        1
 44
0.0
173
     0
291
     1
 45
0.0
1001
ACAD
1000
AcDbSavedByObjectVersion
1070
     0
  0
ENDSEC
  0
EOF
